Exploited Tabs

Daily News

2 versions

TAB

            Daily News Tab by Exploited


THE EXPLOITED Daily News (1982, from "Troops Of Tommorrow")

by Michiel Hautus, 18th October 2001, The Netherlands

signs: h = hammer-on, x = percussionstrike

RIFF A/VERSE

* mute open E-strings
* play last four notes (Em, Esus2) as upstroke

E --------------------------|
B --------------------------|
G -----9-----9-9------------|
D -----9-----9-9------------|
A -----7-----7-7--10-9-9h12-|
E -0-0---0-0-------0-0-0----|


RIFF B/CHORUS

E -----------------------------------|
B -----------------------------------|
G -1111-x9--7---7---9-9-9-9--9--99-9-|
D -9-9--x7--5---7---9-9-9-9--9--99-9-|
A -9-9--x7--5---5---7-7-7-7--7--77-7-|
E ------------------0-0-0-0--0--00-0-|

chords:
x799xx = E5
x10xxxx = Em without 5th
x9xxxx = Esus2 without 5th
x9911xx = B5/F#
x779xx =A5/E
x557xx = G5/D
x577xx = A5
0799xx=E5

More tabs (Rollins Band, Mot?rhead, Black Sabbath and more):
http://ourworld-top.cs.com/HAUTUS/index.htm    

Added On December 4th, 2013

SHARE

Comments

blog comments powered by Disqus

VERSIONS

ADVERTISEMENT