Exploited Tabs

Lie To Me

1 versions

TAB

            ----------------------------------------------------------------------------
			     LIE TO ME - The Exploited
----------------------------------------------------------------------------

My first tab, seems pretty accurate to me. 

Intro x4
e|-----------------------| 
B|-----------------------| 
G|-------44-4------------| 
D|-33-3--44-4--66-6--86--|
A|-33-3--22-2--66-6--86--| 
E|-11-1--------44-4--64--| 

Verse x4
e|-----------------------| 
B|-----------------------| 
G|-------44-4------------| 
D|-33-3--44-4--66-6--86--|
A|-33-3--22-2--66-6--86--| 
E|-11-1--------44-4--64--| 

Chorus x4
e|-----------------------| 
B|-----------------------| 
G|-7-------33-3-5-7------| 
D|-7-77-7--33-3-5-7------|
A|-5-77-7--11-1-3-5------| 
E|---55-5----------------| 

(1:04 - 1:15) Slow down and palm mute verse. 



These are the main riffs played throughout the song, solo is too difficult for me to tab.
Strumming is easy to figure out, just listen to it.

Please e-mail me at plastic-surgery-disaster@hotmail.com to correct any mistakes.    

Added On December 16th, 2013

SHARE

Comments

blog comments powered by Disqus

ADVERTISEMENT