Fightstar Tabs

99

4 versions

TAB

            ----------------------------------------------------------------------------
			     Fightstar - 99 (you and I)
----------------------------------------------------------------------------
Tabbed by: Dan

Tuning:DADGBe drop D

Intro

e|-------------------------------------------------------------------------|
B|----13-------13------------------15-------15-----------------------------|
G|-------12-------12------------------12-------12--------------------------|
D|-15-------15-------15---------15-------15-------15-----------------------|
A|-------------------------------------------------------------------------|
D|-------------------------------------------------------------------------|

e|-------------------------------------------------------------------------|
B|----13-------13---------------15-----------------------------------------|
G|-------12-------12------------12-hold------------------------------------|
D|-15-------15-------15---------15-----------------------------------------|
A|-------------------------------------------------------------------------|
D|-------------------------------------------------------------------------|

Main Riff

e|-------------------------------------------------------------------------|
B|-------------------------------------------------------------------------|
G|-10/12\10--10-10\9-9-9-9-9-9-9-9\7-7-7-7-7-7-7-7\5-5-5-5/9-9-9-9---------|
D|-x--x--x---x--x--x-x-x-x-x-x-x-x-x-x-x-x-x-x-x-x-x-x-x-x-x-x-x-x---------|
A|-8-/10\8---8--8-\7-7-7-7-7-7-7-7\5-5-5-5-5-5-5-5\3-3-3-3/7-7-7-7---------|
D|-------------------------------------------------------------------------|

e|-------------------------------------------------------------------------|
B|-------------------------------------------------------------------------|
G|-10/12\10--10-10\9-9-9-9-9-9-9-9\7-7-7-7-7-7-7-7\5-5/9-9-9-9-9-9---------|
D|-x--x--x---x--x--x-x-x-x-x-x-x-x-x-x-x-x-x-x-x-x-x-x-x-x-x-x-x-x---------|
A|-8-/10\8---8--8-\7-7-7-7-7-7-7-7\5-5-5-5-5-5-5-5\3-3/7-7-7-7-7-7---------|
D|-------------------------------------------------------------------------|

Verse

repeat as many times needed through verse

e|-------------------------------------------------------------------------|
B|--------------------------------------15--15--15-------------------------|
G|-------10-9--9/14-14-14-14-14-14-14-14--14--14--14-----------------------|
D|-------------------------------------------------------------------------|
A|-8h10p8------------------------------------------------------------------|
D|-------------------------------------------------------------------------|

Pre-Chorus

e|-------------------------------------------------------------------------|
B|-------------------------------------------------------------------------|
G|-------palm mute this bit------------------------------------------------|
D|-------------------------------------------------------------------------|
A|-12121212121212121212121212121212\5555555555555555-----------------------|
D|-12121212121212121212121212121212\5555555555555555-----------------------|

e|-------------------------------------------------------------------------|
B|-------------------------------------------------------------------------|
G|-------palm mute this bit------------------------------------------------|
D|-------------------------------------------------------------------------|
A|-12121212121212121212121212121212\5555555555555555-----------------------|
D|-12121212121212121212121212121212\5555555555555555-----------------------|

e|-------------------------------------------------------------------------|
B|-------------------------------------------------------------------------|
G|-------------------------------------------------------------------------|
D|-------------------------------------------------------------------------|
A|-------------------------------------------------------------------------|
D|-0h1-0h1-0h1-0h1---------------------------------------------------------|

Chorus

e|-------------------------------------------------------------------------|
B|-------------------------------------------------------------------------|
G|-------------------------------------------------------------------------|
D|-3-3-3-3-3-3-3-3/7-7-7-7-7-7-7-7-0-0-0-0-0-0-0-0h8-8-8-8-8-8-8-8---------|
A|-3-3-3-3-3-3-3-3/7-7-7-7-7-7-7-7-0-0-0-0-0-0-0-0h8-8-8-8-8-8-8-8---------|
D|-3-3-3-3-3-3-3-3/7-7-7-7-7-7-7-7-0-0-0-0-0-0-0-0h8-8-8-8-8-8-8-8---------|

e|-------------------------------------------------------------------------|
B|-------------------------------------------------------------------------|
G|-------------------------------------------------------------------------|
D|-3-3-3-3-3-3-3-3/7-7-7-7-7-7-7-7-0-0-0-0-0-0-0-0h8-----------------------|
A|-3-3-3-3-3-3-3-3/7-7-7-7-7-7-7-7-0-0-0-0-0-0-0-0h8----hold---------------|
D|-3-3-3-3-3-3-3-3/7-7-7-7-7-7-7-7-0-0-0-0-0-0-0-0h8-----------------------|

Main Riff

e|-------------------------------------------------------------------------|
B|-------------------------------------------------------------------------|
G|-10/12\10--10-10\9-9-9-9-9-9-9-9\7-7-7-7-7-7-7-7\5-5-5-5/9-9-9-9---------|
D|-x--x--x---x--x--x-x-x-x-x-x-x-x-x-x-x-x-x-x-x-x-x-x-x-x-x-x-x-x---------|
A|-8-/10\8---8--8-\7-7-7-7-7-7-7-7\5-5-5-5-5-5-5-5\3-3-3-3/7-7-7-7---------|
D|-------------------------------------------------------------------------|

e|-------------------------------------------------------------------------|
B|-------------------------------------------------------------------------|
G|-10/12\10--10-10\9-9-9-9-9-9-9-9\7-7-7-7-7-7-7-7\5-5/9-9-9-9-9-9---------|
D|-x--x--x---x--x--x-x-x-x-x-x-x-x-x-x-x-x-x-x-x-x-x-x-x-x-x-x-x-x---------|
A|-8-/10\8---8--8-\7-7-7-7-7-7-7-7\5-5-5-5-5-5-5-5\3-3/7-7-7-7-7-7---------|
D|-------------------------------------------------------------------------|

Verse

repeat as many times needed through verse

e|-------------------------------------------------------------------------|
B|--------------------------------------15--15--15-------------------------|
G|-------10-9--9/14-14-14-14-14-14-14-14--14--14--14-----------------------|
D|-------------------------------------------------------------------------|
A|-8h10p8------------------------------------------------------------------|
D|-------------------------------------------------------------------------|

i havent got the next bit, sorry

it then goes back to the chorus

e|-------------------------------------------------------------------------|
B|-------------------------------------------------------------------------|
G|-------------------------------------------------------------------------|
D|-3-3-3-3-3-3-3-3/7-7-7-7-7-7-7-7-0-0-0-0-0-0-0-0h8-8-8-8-8-8-8-8---------|
A|-3-3-3-3-3-3-3-3/7-7-7-7-7-7-7-7-0-0-0-0-0-0-0-0h8-8-8-8-8-8-8-8---------|
D|-3-3-3-3-3-3-3-3/7-7-7-7-7-7-7-7-0-0-0-0-0-0-0-0h8-8-8-8-8-8-8-8---------|

e|-------------------------------------------------------------------------|
B|-------------------------------------------------------------------------|
G|-------------------------------------------------------------------------|
D|-3-3-3-3-3-3-3-3/7-7-7-7-7-7-7-7-0-0-0-0-0-0-0-0h8-8-8-8-8-8-8-8---------|
A|-3-3-3-3-3-3-3-3/7-7-7-7-7-7-7-7-0-0-0-0-0-0-0-0h8-8-8-8-8-8-8-8---------|
D|-3-3-3-3-3-3-3-3/7-7-7-7-7-7-7-7-0-0-0-0-0-0-0-0h8-8-8-8-8-8-8-8---------|

Outro

e|-------------------------------------------------------------------------|
B|-------------------------------------------------------------------------|
G|-10/12\10--10-10\9-------------------------------------------------------|
D|-x--x--x---x--x--x--hold-------------------------------------------------|
A|-8-/10\8---8--8-\7-------------------------------------------------------|
D|-------------------------------------------------------------------------|


| /  slide up
| \  slide down
| h  hammer-on
| p  pull-off
| ~  vibrato
| +  harmonic
| x  Mute note
============================================================================    

Added On December 16th, 2013

SHARE

Comments

blog comments powered by Disqus

VERSIONS

ADVERTISEMENT