Finger Eleven Tabs

Above

3 versions

TAB

            Above Tab by Finger Eleven




   T1: Jen Hennessy, tosh10@hotmail.com, Finger Eleven, Above, 26/06/99 

   S1: I love this song, It KicksAss !! , Above (Finger Eleven) 

   Tabbed By Jen Hennessy http://uk.zarcrom.com/users/humour 

   Its Played In: Db 

   Intro: 

   ------------------------------------------------------------------ 
   ------------------------------------------------------------------ 
   ---77----77----77-----77-------7---------------------------------- 
   ------------------------------------------------------------------ 
   ---55----55----55-----55-------5---------------------------------- 
   ------------------------------------------------------------------ 

   Main Riff: 

   ---------------------------------------------------------------- 
   ---------------------------------------------------------------- 
   -------55--------55--------55-------77-------------------------- 
   -------55--------55--------55-------77-------------------------- 
   0-00-2-33-0-00-2-33-0-00-2-33--3-33-55----------5--33----------- 
   0-00-2----0-00-2----0-00-2-----3-33-----5(bend)-5--33----------- 

   Chorus: Just hold the open note 

   ------------------------------------------------------------------ 
   ------------------------------------------------------------------ 
   ------------------------------------------------------------------ 
   ------------------------------------------------------------------ 
   0----------------------------------------------------------------- 
   0----------------------------------------------------------------- 

   Chrous: (Heavy) Play around with a A, C and D 

   ------------------------------------------------------------------ 
   ------------------------------------------------------------------ 
   --2-----5---7----------------------------------------------------- 
   --2-----5---7----------------------------------------------------- 
   --0-----3---5----------------------------------------------------- 
   ------------------------------------------------------------------ 


   B1: Submit    

Added On December 4th, 2013

SHARE

Comments

blog comments powered by Disqus

VERSIONS

ADVERTISEMENT