Foster The People Tabs

Pumped Up Kicks

1 versions

TAB

            Guitar 1:
e|----------------------------------|
b|----------------------------------|
g|----------------------------------|
D|-----------------1-1-1------------|
A|---------------3-------3-1-1-1-3--|
E|-1-1-1-3-4-4-4--------------------|


Guitar 2(Solo+End):
e|-------------------------------------------------|
b|-------------------------------------------------|
g|------------------------------11-----------------|
D|----------------------10---12----12-10-10h12p10--|
A|-10-10-10-13-13-13-13----------------------------|
E|-------------------------------------------------|


http://www.fosterthepeople.com/    

Added On December 16th, 2013

SHARE

Comments

blog comments powered by Disqus

ADVERTISEMENT