From First To Last Tabs

Untitled

2 versions

TAB

            Untitled Tab by From First To Last


-------------------------------------------------------------------------------
			     Untitled - From First To Last
-------------------------------------------------------------------------------
Tabbed by: xFFTLx - √Čno
Email: hatedguys@hotmail.com

I'm pretty sure its good.

INTRO :
0:00-0:25
---=[Play 2 times Part A and end with Part B]=---

Part A(intro)
e|---------------------------------------------------------------------------|
B|---------------------------------------------------------------------------|
G|-x-x-x-7-x-x-7-7-7-x-x-x-7-x-x-7-7-7---x-x-x-7-x-x-7-7-7-x-x-x-7-x-x-7-7-7-|
D|-x-x-x-7-x-x-7-7-7-x-x-x-7-x-x-7-7-7---x-x-x-7-x-x-7-7-7-x-x-x-7-x-x-7-7-7-|
A|-x-x-x-5-x-x-5-5-5-x-x-x-5-x-x-5-5-5---x-x-x-5-x-x-5-5-5-x-x-x-5-x-x-5-5-5-|
E|---------------------------------------------------------------------------|

e|---------------------------------------------------------------------------|
B|---------------------------------------------------------------------------|
G|-x-x-x-6-x-x-6-6-6-x-x-x-6-x-x-6-6-6---x-x-x-6-x-x-6-6-6-x-x-x-6-x-x-6-6-6-|
D|-x-x-x-6-x-x-6-6-6-x-x-x-6-x-x-6-6-6---x-x-x-6-x-x-6-6-6-x-x-x-6-x-x-6-6-6-|
A|-x-x-x-4-x-x-4-4-4-x-x-x-4-x-x-4-4-4---x-x-x-4-x-x-4-4-4-x-x-x-4-x-x-4-4-4-|
E|---------------------------------------------------------------------------|

Part B(intro)
e|---------------------------------------------------------------------------|
B|---------------------------------------------------------------------------|
G|-x-x-x-7-x-x-7-7-7-x-x-x-7-x-x-7-7-7---x-x-x-7-x-x-7-7-7-x-x-x-7-x-x-7-7-7-|
D|-x-x-x-7-x-x-7-7-7-x-x-x-7-x-x-7-7-7---x-x-x-7-x-x-7-7-7-x-x-x-7-x-x-7-7-7-|
A|-x-x-x-5-x-x-5-5-5-x-x-x-5-x-x-5-5-5---x-x-x-5-x-x-5-5-5-x-x-x-5-x-x-5-5-5-|
E|---------------------------------------------------------------------------|

VERSE :
0:25-0:59

Part A(verse)
e|---------------------------------------------------------------------------|
B|---------------12-12-12-10-12-10-11----------------12-12-12-10-13p11-------|
G|-------------------------------------11-11-11-11---------------------------|x4
D|--11-11-11-11------------------------11-11-11-11---------------------------|
A|--11-11-11-11------------------------9--9--9--9----------------------------|
E|--9--9--9--9---------------------------------------------------------------|

Part B(verse)                 (let the end ring (000))                                 
e|---------------------------------------------------------------------------|
B|---------------------------------------------------------------------------|
G|--7-7-7-7-7-7-7-7--7-7-7-7-7-7-7-7--6-6-6-6-6-6-6-6--5-5-5-5-5-5-5-5---0---|x2
D|--7-7-7-7-7-7-7-7--7-7-7-7-7-7-7-7--6-6-6-6-6-6-6-6--5-5-5-5-5-5-5-5---0---|
A|--5-5-5-5-5-5-5-5--5-5-5-5-5-5-5-5--4-4-4-4-4-4-4-4--3-3-3-3-3-3-3-3---0---|
E|---------------------------------------------------------------------------|
    . . . . . . . .  . . . . . . . .  . . . . . . . .  . . . . . . . .

CHORUS :
0:59-1:17

---=[Play 2 times]=--
e|---------------------------------------------------------------------------|
B|---------------------------------------------------------------------------|
G|--7-7-7-7-7--6-6-6-6-6--5-5-5-5-5--9-9-9-9-9--7-7-7-7-7--11-11-11-11-11----|
D|--7-7-7-7-7--6-6-6-6-6--5-5-5-5-5--9-9-9-9-9--7-7-7-7-7--11-11-11-11-11----|
A|--5-5-5-5-5--4-4-4-4-4--3-3-3-3-3--7-7-7-7-7--5-5-5-5-5--9--9--9--9--9-----|
E|---------------------------------------------------------------------------|


e|---------------------------------------------------------------------------|
B|---------------------------------------------------------------------------|
G|--11-11-11-11-11--11-11-11-11-11--11-11-11-11-11--11-11-11-11-11-----------|
D|--11-11-11-11-11--11-11-11-11-11--11-11-11-11-11--11-11-11-11-11-----------|
A|--9--9--9--9--9---9--9--9--9--9---9--9--9--9--9---9--9--9--9--9------------|
E|---------------------------------------------------------------------------|

PRE-VERSE :
1:17-1:38
---=[Play 2 times]=---
e|---------------------------------------------------------------------------|
B|---------------------------------------------------------------------------|
G|-x-x-x-7-x-x-7-7-7-x-x-x-7-x-x-7-7-7---x-x-x-7-x-x-7-7-7-x-x-x-7-x-x-7-7-7-|
D|-x-x-x-7-x-x-7-7-7-x-x-x-7-x-x-7-7-7---x-x-x-7-x-x-7-7-7-x-x-x-7-x-x-7-7-7-|
A|-x-x-x-5-x-x-5-5-5-x-x-x-5-x-x-5-5-5---x-x-x-5-x-x-5-5-5-x-x-x-5-x-x-5-5-5-|
E|---------------------------------------------------------------------------|

e|---------------------------------------------------------------------------|
B|---------------------------------------------------------------------------|
G|-x-x-x-6-x-x-6-6-6-x-x-x-6-x-x-6-6-6---x-x-x-6-x-x-6-6-6-x-x-x-6-x-x-6-6-6-|
D|-x-x-x-6-x-x-6-6-6-x-x-x-6-x-x-6-6-6---x-x-x-6-x-x-6-6-6-x-x-x-6-x-x-6-6-6-|
A|-x-x-x-4-x-x-4-4-4-x-x-x-4-x-x-4-4-4---x-x-x-4-x-x-4-4-4-x-x-x-4-x-x-4-4-4-|
E|---------------------------------------------------------------------------|

VERSE :
1:38-2:00

e|---------------------------------------------------------------------------|
B|---------------12-12-12-10-12-10-11----------------12-12-12-10-13p11-------|
G|-------------------------------------11-11-11-11---------------------------|x4
D|--11-11-11-11------------------------11-11-11-11---------------------------|
A|--11-11-11-11------------------------9--9--9--9----------------------------|
E|--9--9--9--9---------------------------------------------------------------|

CHORUS :
2:00-2:18

---=[Play 2 times]=--
e|---------------------------------------------------------------------------|
B|---------------------------------------------------------------------------|
G|--7-7-7-7-7--6-6-6-6-6--5-5-5-5-5--9-9-9-9-9--7-7-7-7-7--11-11-11-11-11----|
D|--7-7-7-7-7--6-6-6-6-6--5-5-5-5-5--9-9-9-9-9--7-7-7-7-7--11-11-11-11-11----|
A|--5-5-5-5-5--4-4-4-4-4--3-3-3-3-3--7-7-7-7-7--5-5-5-5-5--9--9--9--9--9-----|
E|---------------------------------------------------------------------------|

e|---------------------------------------------------------------------------|
B|---------------------------------------------------------------------------|
G|--11-11-11-11-11--11-11-11-11-11--11-11-11-11-11--11-11-11-11-11-----------|
D|--11-11-11-11-11--11-11-11-11-11--11-11-11-11-11--11-11-11-11-11-----------|
A|--9--9--9--9--9---9--9--9--9--9---9--9--9--9--9---9--9--9--9--9------------|
E|---------------------------------------------------------------------------|

VERSE :
2:18-2:44
Guitar 1
e|---------------------------------------------------------------------------|
B|---------------------------------------------------------------------------|
G|---------------------------------------------------------------------0-----|x2
D|--7-7--7-7--7-7----7-7--7-7--7-7----6-6--6-6--6-6----5-5--5-5--5-5---0-----|
A|--5-5--5-5--5-5----5-5--5-5--5-5----4-4--4-4--4-4----3-3--3-3--3-3---0-----|
E|---------------------------------------------------------------------------|
    . .  . .  . .    . .  . .  . .    . .  . .  . .    . .  . .  . .
Guitar 2
e|---------------------------------------------------------------------------|
B|---------------------------------------------------------------------------|
G|--7-7-7-7-7-7-7-7--7-7-7-7-7-7-7-7--6-6-6-6-6-6-6-6--5-5-5-5-5-5-5-5---0---|x2
D|--7-7-7-7-7-7-7-7--7-7-7-7-7-7-7-7--6-6-6-6-6-6-6-6--5-5-5-5-5-5-5-5---0---|
A|--5-5-5-5-5-5-5-5--5-5-5-5-5-5-5-5--4-4-4-4-4-4-4-4--3-3-3-3-3-3-3-3---0---|
E|---------------------------------------------------------------------------|
    . . . . . . . .  . . . . . . . .  . . . . . . . .  . . . . . . . .

OUTRO :
2:44-:3:20

e|---------------------------------------------------------------------------|
B|---------------------------------------------------------------------------|
G|--5-5-5--x-x-x-x--5-5-5--x-x-5-x-x--5-5-5--x-x-x-x---0---------------------|x3
D|--5-5-5--x-x-x-x--5-5-5--x-x-5-x-x--5-5-5--x-x-x-x---0---------------------|
A|--3-3-3--x-x-x-x--3-3-3--x-x-3-x-x--3-3-3--x-x-x-x---0---------------------|
E|---------------------------------------------------------------------------|


| /  slide up
| \  slide down
| h  hammer-on
| p  pull-off
| ~  vibrato
| +  harmonic
| x  Mute note
| .  Palm Muting
==============================================================================    

Added On December 4th, 2013

SHARE

Comments

blog comments powered by Disqus

VERSIONS

ADVERTISEMENT