Fu Manchu Tabs

Anodizer

2 versions

TAB

            Anodizer Tab by Fu Manchu


TAB for "anodizer" by FU MANCHU  ***THIS TUNE ROCKS!****

From the Album "The Action Is Go"

****Visit  * Fu-Manchu.com *to check out more of their stuff!!

Should be close  (maybe not perfect, but close to it)

Tune down to "Drop D" tuning, then tune your low E (which is now at D)  down to "C"


D ---------------------- |---------------------------------------|
A -----------------------|---------------------------------------|
F -----------------------|---------------------------------------|
C ----drum  intro--------|------3---------5-----------0----------|
G ---------------------- |------3---------5-----------0----------|
C -----------------------|------3---------5-----------0----------|

      RIF #1
D-------------------------------------------------------------------------------------|
A------------------------------------------------------------------- -----------------|
F-------------------------------------------------------------------------------------|
C------------3h5---3--------3---------------------3h5---3-------------3----5----0-----|  (2 times
G------3h5-------------3h5------5~~----3h5----------------------------3----5----0-----|    before
C---------------------------------------------------------------------3--- 5----0-----|    lyrics start)

****Verse 1****

          Modified....          .....added lean       whatcha get...   is whatcha see....
D-------------------------------------------------------------------------------------|
A-------------------------------------------------------------------------------------|
F-------------------------------------------------------------------------------------|
C-------------3h5----3-----------3----------------------3h5----3-------3----5----0----| (4 times)
G------3h5--------------3h5--------5~~------3h5------------------------3----5----0----|
C----------------------------------------------------------------------3--- 5----0----|

****CHORUS******

    Better check your codes cause he was never King...
D------------------------------------------------------------|
A------------------------------------------------------------|
F------------------------------------------------------------|
C-------77777--9-----0--3-----3333-------000000--------------| (4 times)
G-------77777--9-----0--3-----3333-------000000--------------|
C-------77777--9-----0--3-----3333-------000000--------------|


*****intro to Verse 2*****
      RIF #1 (same as above)

D------------------------------------------------------------------------------------|
A------------------------------------------------------------------------------------|
F------------------------------------------------------------------------------------|
C------------3h5----3-----------3--------------------3h5---3---------3----5----0-----|  (2 times
G------3h5---------------3h5--------5~~ ---3h5-----------------------3----5----0-----|    before
C--------------------------------------------------------------------3--- 5----0-----|    lyrics start)

***** Verse 2*****

         Pro Perform.....   throwin tabs....          Hefty doubles...  tuff mags
D-----------------------------------------------------------------------------------|
A-----------------------------------------------------------------------------------|
F-----------------------------------------------------------------------------------|
C------------3h5----3----------3-------------------3h5----3---------3----5----0-----|  (4 times)
G------3h5---------------3h5-------5~~ ---3h5-----------------------3----5----0-----|
C-------------------------------------------------------------------3--- 5----0-----|

****CHORUS******

        Better check your codes cause he was never King...
D-------------------------------------------------------------|
F-------------------------------------------------------------|
A-------------------------------------------------------------|
C-------77777--9--0--3---3333---000000------------------------| (4 times)
G-------77777--9--0--3---3333---000000------------------------|
C-------77777--9--0--3---3333---000000------------------------|

****then this little part*****
D----------------------------------------------------------------|
A----------------------------------------------------------------|
F----------------------------------------------------------------|
C------1---0---13---0---1---0---13---0---1--0---13 ~~~~  -0000---|
G------1---0---13---0---1---0---13---0---1--0---13 ~~~~  -0000---|
C------1---0---13---0---1---0---13---0---1--0---13 ~~~~  -0000---|


****CHORUS******

        Better check your codes cause he was never King...
D------------------------------------------------------------|
A------------------------------------------------------------|
F------------------------------------------------------------|
C-------77777--9--0--3---3333---000000-----------------------| (4 times)
G-------77777--9--0--3---3333---000000-----------------------|
C-------77777--9--0--3---3333---000000-----------------------|

****then this little part*****
D-------------------------------------------------------|
A-------------------------------------------------------|
F-------------------------------------------------------|
C------1---0---13---0---1---0---13---0---1--0---13 ~~~~-|
G------1---0---13---0---1---0---13---0---1--0---13------| ~~~~ (let ring)
C------1---0---13---0---1---0---13---0---1--0---13 ~~~~-|

 ****Outro***

          Flyin' ...Over .....my ....head...
D--------------------------------------------------------------|
A--------------------------------------------------------------|
F--------------------------------------------------------------|
C----------------------------------------------------------(27-| times?)
G--------3h5---5--5--------------------------------------------|
C------------------------3h5p3--0--0---------------------------|

****and RIF#1 one more time*****
      RIF #1
D---------------------------------------------------------------------------------|
A---------------------------------------------------------------------------------|
F---------------------------------------------------------------------------------|
C------------3h5---3--------3---------------------3h5----3--------3----5----0-----|
G------3h5------------3h5-------5~~ ---3h5------------------------3----5----0-----|
C-----------------------------------------------------------------3--- 5----0-----|

LYRICS:
Modified... added lean
Whatcha get...  is watcha see
Full code...  get it straight
Top of the line ..... never late
Showpiece... on the bars
Expired sails.. KT scars
4130...  only way!

(chorus)
Better check your code cause he was never king....
Table toppin' load like we ain't ever seen!

Pro perform...  throwin tabs
Hefty doubles...  tuff mags
Numbered plate...  ahhh kiss this
Chicken scratch...  hit or miss
Pimp suds...  spaced invade
White knuckle... pitched out
Full bore...  all about

(chorus)

FLYIN'  OVER MY  HEAD........

GO TO   Fu-Manchu.com    

Added On December 4th, 2013

SHARE

Comments

blog comments powered by Disqus

VERSIONS

ADVERTISEMENT