Goodnight Nurse Tabs

Loner

1 versions

TAB

            Loner Tab by Goodnight Nurse


Loner by Goodnight Nurse
Email: shorty_rox_06@hotmail
Tuning: Standard
I figured out the rest of the songs for some of you. I edited it so now im pretty sure im right.
Key:
| /  slide up
| \  slide down
| h  hammer-on
| p  pull-off
| ~  vibrato
| +  harmonic
| x  Mute note

Intro:
e|-------------------|
B|--888-88-8-8-8888--|
G|--999-99-9-9-9999--|
D|--999-99-9-9-9999--|
A|--777-77-7-7-7777--|
E|-------------------|

e|--------------------------------------------|
B|--------------------------------------------|
G|--999---------777---------999-777--99999999-|
D|--999-9/7-7/6-777-8/6-6/5-999-777--99999999-|
A|--777---------555---------777-555--77777777-|
E|---------------------------------5----------|

e|--------------------------------------------|
B|--------------------------------------------|
G|--999---------777---------999-777-----------|
D|--999-9/7-7/6-777-8/6-6/5-999-777--77777777-|
A|--777---------555---------777-555--77777777-|
E|---------------------------------5-55555555-|

e|----------------|
B|-9-7-5-10-9-7-5-|
G|----------------|
D|----------------|
A|----------------|
E|----------------|

Verse 1:
e|--------------------------------------------------------------------|
B|--------------------------------------------------------------------|
G|-x-x-9---------x-x-9--7----x-x-9--x-x-7---------x-x-9--7----999-999-|
D|-x-x-9---------x-x-9--7-7--x-x-9--x-x-7--x-x-7--x-x-9--7-7--999-999-|
A|-x-x-7---------x-x-7--5-7--x-x-7--x-x-5--x-x-7--x-x-7--5-7--777-777-|
E|------------------------5----------------x-x-5-----------5----------|

Chorus:
e|-------------------------------|
B|-------------------------------|
G|-9999-9--99999999--7777--------|
D|-9999-9--99999999--7777-777777-|
A|-7777-7--77777777--5555-777777-|
E|------------------------555555-| x2

e|------------------|
B|------------------|
G|-7777-77--9999999-|
D|-7777-77--9999999-|
A|-5555-55--7777777-|
E|------------------|

Verse 2:
e|----------------------------------|
B|----------------------------------|
G|-x-x-9--x-x-7---------x-x-9--7----|
D|-x-x-9--x-x-7--x-x-7--x-x-9--7-7--|
A|-x-x-7--x-x-5--x-x-7--x-x-7--5-7--|
E|---------------x-x-5-----------5--| x2

Chorus:
e|-------------------------------|
B|-------------------------------|
G|-9999-9--99999999--7777--------|
D|-9999-9--99999999--7777-777777-|
A|-7777-7--77777777--5555-777777-|
E|------------------------555555-| x2

e|--------------------|
B|--------------------|
G|-7777-77--999999-9~-|
D|-7777-77--999999-9~-|
A|-5555-55--777777-7~-|
E|--------------------|

Little  bridge thingy...

Repeat Chorus x2
In the second time the chorus plays, a 2nd guitar plays this:
e|---------------------------------|
B|-9-7-9-7-9-7-9-7-9-7-9-7-9-7-9-7-|
G|---------------------------------|
D|---------------------------------|
A|---------------------------------|
E|---------------------------------| x2

Outro:
e|---------|
B|---------|
G|-9999-99-|
D|-9999-99-|
A|-7777-77-|
E|---------|
And that should juat about do it!
The End... Happy playing ;)    

Added On December 4th, 2013

SHARE

Comments

blog comments powered by Disqus

ADVERTISEMENT