Greenskeepers Tabs

Ny Lady

1 versions

TAB

            Song: NY Lady
Artist: Greenskeepers
 Album: Polo Club (2006)


Verse:

e|------------------------------------|:
B|---------------77-------------------|:
G|---------------77-------------------|:
D|-------3-------77--------3----------|:   (8x)
A|---3-5--5--3/5-55----3-5--5----3-5--|:
E|------------------------------1-3---|:

(After the 6th time distortion kicks in)


Prechorus

e|-----------------|:--------|
B|-----------------|:-----77-|
G|-----------------|:-----77-|
D|-------3------3--|:-----77-|   (8x)
A|---3-5--5-3-5--5-|:-3/5 55-|
E|-----------------|:--------|

(use the exit at the 8th time)
(Played with distortion)

Chorus:

e|-----------------------------------------------------|:
B|---777-777-7-777-777-7-/101010-101010-10-/555-555-5-/|:
G|---777-777-7-777-777-7-/101010-101010-10-/555-555-5-/|:
D|---777-777-7-777-777-7-/101010-101010-10-/555-555-5-/|:   (2x)
A|---555-555-5-555-555-5-/8 8 8 -8 8 8 -8 -/333-333-3-/|:
E|-----------------------------------------------------|:

(Played with distortion)



Tabbed by Gynthar357    

Added On December 16th, 2013

SHARE

Comments

blog comments powered by Disqus

ADVERTISEMENT