Hedley Tabs

Never Too Late

3 versions

TAB

            -------------------------------------------------------------------------------
			     Never Too Late - Hedley
-------------------------------------------------------------------------------
Tabbed by: Dan	
Email:dvalois@live.ca
Tuning: Standard ( EADGBe)

Intro
e|-------------------------------------------------------------------------|
B|-------9-------------------------9----------------------------9----------|
G|----------9-----11~~~9--11\---------9---------9--------9--11-----9-------|
D|---/9--------9---------------/9--------9--11-----11--9--9---9------------|
A|-------------------------------------------------------------------------|
E|-------------------------------------------------------------------------|

Chords ( Verse )
e|-------------------------------------------------------------------------|
B|-------------------------------------------------------------------------|
G|----9--9--9-----9--9--9----9---9---9------9--9--9-----9--9--9------------|  
D|----9--9--9-----9--9--9----9---9---9------9--9--9-----9--9--9------------|
A|-7-----7--7--6-----6--6------------------0-----0--0----------------------|
E|-----------------------------8-----8---8------------------7-----7--7-----|


| /  slide up
| \  slide down
| h
h
e |---|-x-|---|---|---|
B |---|---|---|-x-|---|
G |---|---|---|-x-|---|
D |---|---|---|-x-|---|
A |---|-x-|---|---|---|
E |---|-x-|---|---|---|
hammer-on | p pull-off | ~ vibrato | + harmonic | x Mute note ===============================================================================

Added On December 16th, 2013

SHARE

Comments

blog comments powered by Disqus

VERSIONS

ADVERTISEMENT