Hellyeah Tabs

Hell Of A Time

1 versions

TAB

            Artist:HELLYEAH
Song:Hell Of A Time
Album:Stampeid
Tuning: drop B
Tabbed by: Tyler516 (tyler s)

Intro/chorus
B--7---5-7-------------|
F#-7-3-5-7-------------|
B--7-5-5-7-------------|
E----------------------|
G#---------------------|
C#---------------------|

Verse
B--7--------------5------7-----------------|
F#-7-(24x)-3-(5x)-5-(5x)-7-(5x)------------|
B--7-------5------5------7-----------------|
E------------------------------------------|
G#-----------------------------------------|
C#-----------------------------------------|

ends on
B--5---------------|
F#-5---------------|
B--5---------------|
E------------------|
G#-----------------|
C#-----------------|

Still Working On Solo should have it finished soon.
Its a fairly easy song please comment and rate
enjoy!    

Added On December 16th, 2013

SHARE

Comments

blog comments powered by Disqus

ADVERTISEMENT