Hellyeah Tabs

Hellyeah

3 versions

TAB

            Bb F Bb Eb G C
Number of time u play each section is underneath them in brackets(*)
Ph=pinch harmonic
h=harmonic

scratching slowly whilst moving string down and up on Bb and F string

(Intro)then Vinnie Paul comes in and u do same as his drums
--------------------]
--------------------]
--------------------]
--------------------]
00--00-00-00-000-00-]
00--00-00-00-000-00-]

verse 1
--------------------------------------]
--------------------------------------]
--------------------------------------]
--------------------------------------] (x3)
--------------------------------------]
--00-3-0-6-00-3-0-6-0-3333-6----------]

[--------------------------------------------------------------------------]
[--------------------------------------------------------------------------]
[-7-7-7-7--/-10-10-10-10--/---13-13-13-13-/--12-12-12-12--------------] slide
[-x-x-x-x--/-x--x--x--x--/----x--x--x---x-/--x--x--x--x--------------------]
[-5-5-5-5--/-8--8--8--8--/---11-11-11-11-/---10-10-10-10-------------------]
[--------------------------------------------------------------------------]

[-------------------------------][-------------------------------][------------------------------]
[-------------------------------][-------------------------------][------------------------------]
[-------------------------------][-------------------------------][------------------------------]
[-------------------------------][-------------------------------][------------------------------]
[-------------------------------][-------------------------------][------------------------------]
[-00-3-0-6-00-3-0-6-0-3333-6----][-00-3-0-6-00-3-0-6-0-3333-3----][-00-3-0-6-00-3-0-6-0-3333-6---]

play first section (x3) .second section (x1)and pinch harmonic on the last 3 . play last part (x3)

bridge
[--------------------------------------------------------------------------]
[--------------------------------------------------------------------------]
[-7-7-7-7--/-10-10-10-10--/---13-13-13-13-/--12-12-12-12--------------] slide
[-x-x-x-x--/-x--x--x--x--/----x--x--x---x-/--x--x--x--x--------------------]
[-5-5-5-5--/-8--8--8--8--/---11-11-11-11-/---10-10-10-10-------------------]
[--------------------------------------------------------------------------]


chorus
[------------------------------------]---------------]
[------------------------------------]---------------]
[------------------------------------]---------------]
[------------------------------------]---------------]
[------------------------------------]---------------]
[-0-10--0-12-0-10-0-12-0-10-0-13-12--]--3-6-3-9-2-1--]

(play this sectionof the chorus x3) (play this section x1)
play together twice


Bridge
[--h-]
[-15-] harmonic 15th fret strum up down 16time
[-15-]*16
[-15-]
[----]
[----]

verse2
[-------------------------------][-------------------------------][------------------------------]
[-------------------------------][-------------------------------][------------------------------]
[-------------------------------][-------------------------------][------------------------------]
[-------------------------------][-------------------------------][------------------------------]
[-------------------------------][-------------------------------][------------------------------]
[-00-3-0-6-00-3-0-6-0-3333-6----][-00-3-0-6-00-3-0-6-0-3333-3----][-00-3-0-6-00-3-0-6-0-3333-6---]


play first section (*3) .second section (*1)and pinch harmonic on the last 3 . play last part (3*)

bridge
[--------------------------------------------------------------------------]
[--------------------------------------------------------------------------]
[-7-7-7-7-/-10-10-10-10--/---13-13-13-13-/--12-12-12-12---] slide
[-x-x-x-x-/---x---x--x--x----/----x--x--x---x---/---x---x---x---x----]
[-5-5-5-5--/--8--8--8--8----/---11-11-11-11-/---10-10-10-10--]
[--------------------------------------------------------------------------]


chorus
[------------------------------------]---------------]
[------------------------------------]---------------]
[------------------------------------]---------------]
[------------------------------------]---------------]
[------------------------------------]---------------]
[-0-10--0-12-0-10-0-12-0-10-0-13-12--]--3-6-3-9-2-1--]

(play this sectionof the chorus x3) (play this section x1)
play together twice

verse 3 play all together 4 times
[------------------------]-------------------------]
[------------------------]-------------------------] 
[------------------------]-------------------------]
[------------------------]-------------------------]
[--0-3-666-3-6-----------]---0-3-666-3-6-0-3-0-3---]
[--0-3-666-3-6-0-3-0-3---]---0-3-666-3-6-0-3-0-3---]
(play this section 1* harmonic on end 3's)(play this section 3*)

bridge
[----------------------]
[----------------------]
[----------------------]
[----------------------]
[--00--00-00-00-000-00-]
[--00--00-00-00-000-00-]

chorus
[------------------------------------]---------------]
[------------------------------------]---------------]
[------------------------------------]---------------]
[------------------------------------]---------------]
[------------------------------------]---------------]
[-0-10--0-12-0-10-0-12-0-10-0-13-12--]--3-6-3-9-2-1--]

(play this sectionof the chorus x3) (play this section x1)
play together twice

outro
[----------------------]
[----------------------]
[----------------------]
[----------------------]
[--00--00-00-00-000-00-]
[--00--00-00-00-000-00-]    

Added On December 16th, 2013

SHARE

Comments

blog comments powered by Disqus

VERSIONS

ADVERTISEMENT