Hellyeah Tabs

Star

2 versions

TAB

            drop c (CGCFAD)


ok well this is my first tab so its not 100% corect

THE INTRO\VERSE  IS CORECT BUT THE CHORUS DOESN'T SOUND RIGHT

intro/verse

D-----------------------------|
A-----------------------------|
F-----------------------------|
C--8--10-10--11-10-8-10--8-10-|
G--8--10-10--11-10-8-10--8-10-|
C--8--10-10--11-10-8-10--8-10-|

chorus

D-----------------------------------------|
A-----------------------------------------|
F-----------------------------------------|
C--10-10-10-10-X-10-X-10--6-6-6-6-X-6-X-6-|
G--10-10-10-10-X-10-X-10--6-6-6-6-X-6-X-6-|
C--10-10-10-10-X-10-X-10--6-6-6-6-X-6-X-6-|

SORRY I DON'T KNOW THE BRIDGE AND SOLO BUT YOU NOW HAVE THIS    

Added On December 16th, 2013

SHARE

Comments

blog comments powered by Disqus

VERSIONS

ADVERTISEMENT