Hillsong United Tabs

What The World Will Never Take

2 versions

TAB

            intro/chorus
E-------------------------------]
b-------------------------------]
g-------------------------------]
d---76667--76667--76667--766697-]
a---------------55-----55-------]
e-55-----55---------------------]x2

        bridge
E-------------------------------]
B220220220320-220220220320------]
g-------------------------------]
d-------------------------------]
a-------------------------------]
e-------------------------------]
        solo
E--5--5-5--57s5]----------------]
b77-77-7-66----]--2--2-2--4--4-4]
g--------------]22-22-2-44-44-4-]
d--------------]----------------]
a--------------]----------------]
e--------------]----------------]X2
build up on second bit


s:slide up

this is my first tab so dont blame me if i made a mistake    

Added On December 16th, 2013

SHARE

Comments

blog comments powered by Disqus

VERSIONS

ADVERTISEMENT