HIM Tabs

Love In Cold Blood

2 versions

TAB

            Love In Cold Blood - HIM

Probably my favorite off the new album & was sick of waiting for someone to tab this 
song thus I decided to do it myself for once. enjoy


Intro


(I'm not sure what the effect on this riff is)
e---------------------------------------------------------------|
B---------------------------------------------------------------|
G---------------------------------------------------------------|
D---5/77777777--9--10----5/77777777--10--9---5/77777777--9--10--|
A---------------------------------------------------------------|
D---------------------------------------------------------------|


e--------------------------------|
B--------------------------------|
G--------------------------------|
D--------------------------------|
A---2-2-0h4p2--2-2-0h4p2--2b-2b--|
D---2-2-0h4p2--2-2-0h4p2---------|
    PM         PM


e-------------------------------------------|
B-------------------------------------------|
G-------------------------------------------|
D---5/77777777--9--10----5/77777777--10--9--|
A---5/77777777--9--10----5/77777777--10--9--|
D---5/77777777--9--10----5/77777777--10--9--|

e-----------------------------------------------------|
B-----------------------------------------------------|
G-----------------------------------------------------|
D---5/77777777--9--10---------------------------------|
A---5/77777777--9--10----2-2-0h4p2--2-2-0h4p2--2b-2b--|
D---5/77777777--9--10----2-2-0h4p2--2-2-0h4p2---------|
                         PM         PM


Verse (First half is clean guitar that i couldn't figure out)


e------------------------------------------------|
B------------------------------------------------|
G------------------------------------------------|
D------------------------------------------------|
A--------2*--7777777777777777-000000000-5555555--|
D---2--4-----7777777777777777-000000000-5555555--|
             PM----------------------------------|


e------------------------------------------|
B------------------------------------------|
G------------------------------------------|
D-------------------------------0----5-----|
A---7777777777777777-------2*---0----5-----|
D---7777777777777777--2--4------0----5-----|
    PM-------------------------------------|

Chorus


e--------------------------------------------|
B--------------------------------------------|
G----------------------7--5--9--5------------|
D---5/77777777777777---7--5--9--5------------|
A---5/77777777777777---5--3--7--3---4-2-0----|
D---5/77777777777777----------------4-2-0----|
                                    PM---


e------------------|
B------------------|
G------------------|
D---5/777777-------|
A---5/777777-------|
D---5/777777--2----|

Intro riff again

e-------------------------------------------|
B-------------------------------------------|
G-------------------------------------------|
D---5/77777777--9--10----5/77777777--10--9--|
A---5/77777777--9--10----5/77777777--10--9--|
D---5/77777777--9--10----5/77777777--10--9--|

e-----------------------------------------------------|
B-----------------------------------------------------|
G-----------------------------------------------------|
D---5/77777777--9--10---------------------------------|
A---5/77777777--9--10----2-2-0h4p2--2-2-0h4p2--2b-2b--|
D---5/77777777--9--10----2-2-0h4p2--2-2-0h4p2---------|
                         PM         PM


Verse


e------------------------------------------------|
B------------------------------------------------|
G------------------------------------------------|
D------------------------------------------------|
A--------2*--7777777777777777-000000000-5555555--|
D---2--4-----7777777777777777-000000000-5555555--|
             PM----------------------------------|


e------------------------------------------|
B------------------------------------------|
G------------------------------------------|
D-------------------------------0----5-----|
A---7777777777777777-------2*---0----5-----|
D---7777777777777777--2--4------0----5-----|
    PM-------------------------------------|


Chorus

e--------------------------------------------|
B--------------------------------------------|
G----------------------7--5--9--5------------|
D---5/77777777777777---7--5--9--5------------|
A---5/77777777777777---5--3--7--3---4-2-0----|
D---5/77777777777777----------------4-2-0----|
                                    PM---


e---------------------------------------|
B---------------------------------------|
G-----------------7--5--9--5------------|
D---5/777777------7--5--9--5------------|
A---5/777777------5--3--7--3---4-2-0----|
D---5/777777--2----------------4-2-0----|
                               PM---

e--------------------------------------------|
B--------------------------------------------|
G----------------------7--5--9--5------------|
D---5/77777777777777---7--5--9--5------------|
A---5/77777777777777---5--3--7--3---4-2-0----|
D---5/77777777777777----------------4-2-0----|
                                    PM---

e------------------|
B------------------|
G------------------|
D---5/777777-------|
A---5/777777-------|
D---5/777777--2----|


e--------------------------------------------|
B--------------------------------------------|
G--------------------------------------------|
D--3--5--7----3--5--7----3--5--7--9--10--5---|
A--3--5--7----3--5--7----3--5--7--9--10--5---|
D--3--5--7----3--5--7----3--5--7--9--10--5---|

Solo (Only figured out the rhythm)


e-----------------------------------------------------------------------|
B-----------------------------------------------------------------------|
G-----------------------------------------------------------------------|
D---222222222222-55555555-77777777--222222222222-55555555-77777777------|
A---222222222222-55555555-77777777--222222222222-55555555-55555555------|
D---222222222222-55555555-77777777--222222222222-55555555-77777777------|


e------------------------------------------------|
B------------------------------------------------|
G------------------------------------------------|
D---222222222222-55555555-77777777--999999999999-|
A---222222222222-55555555-77777777--999999999999-|
D---222222222222-55555555-77777777--999999999999-|

D--------------------------------------------------------|
A--------------------------------------------------------|
D---10-9h10p9-5-7---10-9h10p9-5-12---10-9h10p9-5-7---9b--|


D--------------------------------------------------------|
A---10-9h10p9-5-7---10-9h10p9-5-12---10-9h10p9-5-7-------|
D---10-9h10p9-5-7---10-9h10p9-5-12---10-9h10p9-5-7---9b--|

Intro riff again


e---------------------------------------------------------------|
B---------------------------------------------------------------|
G---------------------------------------------------------------|
D---5/77777777--9--10----5/77777777--10--9---5/77777777--9--10--|
A---------------------------------------------------------------|
D---------------------------------------------------------------|


e--------------------------------|
B--------------------------------|
G--------------------------------|
D--------------------------------|
A---2-2-0h4p2--2-2-0h4p2--2b-2b--|
D---2-2-0h4p2--2-2-0h4p2---------|
    PM         PM


Chorus


e--------------------------------------------|
B--------------------------------------------|
G----------------------7--5--9--5------------|
D---5/77777777777777---7--5--9--5------------|
A---5/77777777777777---5--3--7--3---4-2-0----|
D---5/77777777777777----------------4-2-0----|
                                    PM---


e---------------------------------------|
B---------------------------------------|
G-----------------7--5--9--5------------|
D---5/777777------7--5--9--5------------|
A---5/777777------5--3--7--3---4-2-0----|
D---5/777777--2----------------4-2-0----|
                               PM---

e--------------------------------------------|
B--------------------------------------------|
G----------------------7--5--9--5------------|
D---5/77777777777777---7--5--9--5------------|
A---5/77777777777777---5--3--7--3---4-2-0----|
D---5/77777777777777----------------4-2-0----|
                                    PM---

e------------------|
B------------------|
G------------------|
D---5/777777-------|
A---5/777777-------|
D---5/777777--2----|


e------------------------------------------------|
B------------------------------------------------|
G------------------------------------------------|
D---3--5--7--9---3--5--7----3--5--7--9--10--5----|
A---3--5--7--9---3--5--7----3--5--7--9--10--5----|
D---3--5--7--9---3--5--7----3--5--7--9--10--5----|


Outro riff


e-----------------------------------------------------------------------------|
B-----------------------------------------------------------------------------|
G---------------------------------------------------------------------------7-|
D---------------------------------------------------------------------------7-|
A-------777--7--9h10p9--9--5h7p5--5--0h2h5----------777--7--9h10p9--0-2-0-2-5-|
D---2-------------------------------------------2-------------------0-2-0-2-0-|
                                                                    PM-----
                                 X 4


e---------------|
B---------------|
G---------------|
D---7--5-7-5----|
A---7--5-7-5----|
D---7--5-7-5----|

e------------------------------------------------------|
B------------------------------------------------------|
G------7-9-11-11-9----7-9-11-11-9--7-9-11-11-----------|
D------x-x-x--x--x----x-x-x--x--x--x-x-x--x--7--5-7-5--|
A------5-7-9--9--7----5-7-9--9--7--5-7-9--9--7--5-7-5--|
D---2----------------------------------------7--5-7-5--|


e-----------------------------------------------------------------------------|
B-----------------------------------------------------------------------------|
G---------------------------------------------------------------------------7-|
D---------------------------------------------------------------------------7-|
A-------777--7--9h10p9--9--5h7p5--5--0h2h5----------777--7--9h10p9--0-2-0-2-5-|
D---2-------------------------------------------2-------------------0-2-0-2-0-|
                                                                    PM-----
                                 X 2

e---------------|
B---------------|
G---------------|
D---7--5-7-9----|
A---7--5-7-9----|
D---7--5-7-9----|


e--------------------------------------|
B--------------------------------------|
G--------------------------------------|
D--------------------------------------|   X2
A---9b-9b-9b-7-5/7----9b-9b-9b-7-5/12--|
D--------------------------------------|

Thats pretty much it. Couldn't do the solo cause I suck.
HIM 4rE teh 1337! w00t!    

Added On December 16th, 2013

SHARE

Comments

blog comments powered by Disqus

VERSIONS

ADVERTISEMENT