HIM Tabs

Venus Doom

2 versions

TAB

            Venus Doom - HIM
-------------------------------------------------------------------------------
Tabbed by: Jade_Simone
Email: Cyanide_Sun616@hotmail.com

Tuning: (B F# B E G# c#)

c#|-----------------------------------------------------------------------|
G#|-----------------------------------------------------------------------|
E |-----------------------------------------------------------------------|
B |-----------------------------------------------------------------------|
F#|-0-2-0---3---0-2-0-0-3--0-2-0--3--0-2-0--3--0-2-0-0-3--0-2-0--3--------|
B |-0-2-0---3---0-2-0-0-3--0-2-0--3--0-2-0--3--0-2-0-0-3--0-2-0--3--------|
    . . .       . . . .    . . .     . . .     . . . .    . . .
c#|-----------------------------------------------------------------------|
G#|-----------------------------------------------------------------------|
E |-----------------------------------------------------------------------|
B |-----------------------------------------------------------------------|
F#|--------------3----------555---------------3----------555--------------|
B |-0-0-2h3p2p0-----2h3p2p2-555--0-0-2h3p2p0-----2h3p2p0-555--------------|

c#|-----------------------------------------------------------------------|
G#|-----------------------------------------------------------------------|
E |-----------------------------------------------------------------------|
B |-----------------------------------------------------------------------|
F#|--------------3----------555---2--3--2--0------------------------------|
B |-0-0-2h3p2p0-----2h3p2p2-555---2--3--2--0------------------------------|

c#|-----------------------------------------------------------------------|
G#|-----------------------------------------------------------------------|
E |-----------------------------------------------------------------------|
B |------------------55555555---------------------------------------------|
F#|---------55555555-33333333-00000000-22222222---------------------------|
B |--3~-3~--55555555----------00000000-22222222---------------------------|
            ........ ........ ........ start lifting
insanity    She'll be the light to guide you back home...

c#|-----------------------------------------------------------------------|
G#|-----------------------------------------------------------------------|
E |-----------------------------------------------------------------------|
B |-----------------------------------------------------------------------|
F#|-----------------------------------------------------------2222--------|
B |-----------------------------------------------------------2222-3------|
                                                              ....
just give her a kiss worth dying for...         and open your arms

Chorus
c#|-----------------------------------------------------------------------|
G#|-----------------------------------------------------------------------|
E |-77777777-99999999-10-10-10-10-10-10-10-10--12-12-12-12-12-12-12-12----|
B |-----------------------------------------------------------------------|
F#|-55555555-77777777-8--8--8--8--8--8--8--8---10-10-10-10-10-10-10-10----|
B |-----------------------------------------------------------------------|

c#|-----------------------------------------------------------------------|
G#|-----------------------------------------------------------------------|
E |-----------------------------------------------------------------------|
B |-3-3-3-3-3/5-----------------------------------------------------------|
F#|-1-1-1-1-1/3-----------------------------------------------------------|
B |-----------------------------------------------------------------------|

c#|-----------------------------------------------------------------------|
G#|-----------------------------------------------------------------------|
E |-77777777-99999999-10-10-10-10-10-10-10-10--12-12-12-12-12-12-12-12----|
B |-----------------------------------------------------------------------|
F#|-55555555-77777777-8--8--8--8--8--8--8--8---10-10-10-10-10-10-10-10----|
B |-----------------------------------------------------------------------|

c#|-----------------------------------------------------------------------|
G#|-----------------------------------------------------------------------|
E |-----------------------------------------------------------------------|
B |-3-3-3-3-3/5-----------------------------------------------------------|
F#|-1-1-1-1-1/3--2-3-2-0--------------------------------------------------|
B |--------------2-3-2-0--------------------------------------------------|


Sorry, no pre solo or solo yet =[


Creepy Slow Part.
c#|-------------|
G#|-------------|
E |-------------|
B |-------------|
F#|--5(ring)----|
B |--5(ring)----|
Creepy lullaby tune

c#|-------------------------------------------------------------------------------|
G#|-------------------------------------------------------------------------------|
E |-------------------------------------------------------------------------------|
B |-------------------------------------------------------------------------------|
F#|-/\/5--7-8-7-10--8-7-8-7--3--5--7--8--7--5--7-8-7-10--8-7-8-7--3--1--1--0-1-0--|
B |-/\/5--7-8-7-10--8-7-8-7--3--5--7--8--7--5--7-8-7-10--8-7-8-7--3--1--1--0-1-0--|

c#|-------------------------------------------------------------------------------|
G#|-------------------------------------------------------------------------------|
E |-------------------------------------------------------------------------------|
B |-------------------------------------------------------------------------------|
F#|-5--7-8-7-10--8-7-8-7--3--5--7--8--7--5--7-8-7-10--8-7-8-7--3--1--1--0-1-0-----|
B |-5--7-8-7-10--8-7-8-7--3--5--7--8--7--5--7-8-7-10--8-7-8-7--3--1--1--0-1-0-----|

c#|-------------------------------------------------------------|
G#|-------------------------------------------------------------|
E |-------------------------------------------------------------|
B |-------------------------------------------------------------|
F#|-0-2-0---3---0-2-0-0-3--0-2-0--3--0-2-0--3---0-2-0--3--------|
B |-0-2-0---3---0-2-0-0-3--0-2-0--3--0-2-0--3---0-2-0--3--------|
    . . .       . . . .    . . .     . . .      . . .

Outro
c#|--------------------------------------------------------------------------|
G#|--------------------------------------------------------------------------|
E |--------------------------------------------------------------------------|
B |--------------------------------------------------------------------------|
F#|-----------3-----------5--------------------------------------------------|
B |-0-2h3p2p0----2h3p2p0--5--------------------------------------------------|

| /  slide up
| \  slide down
| h  hammer-on
| p  pull-off
| ~  vibrato
| +  harmonic
| x  Mute note
===============================================================================    

Added On December 16th, 2013

SHARE

Comments

blog comments powered by Disqus

VERSIONS

ADVERTISEMENT