Hives Tabs

Hey Little World

2 versions

TAB

            Intro
----------------------|
----------------------|
----------------------|
--------6---------6---|
--0-2-4---4-0-2-4---4-|
0---------------------|

Main Riff/Verse ("It was a cold, dark night...")
------------------|
------------------|
------6-----------|
2-4-6-6-6---------|
2-4-6-4-6---------|
0-2-4---4---------|

Pre Chorus ("Hey little world...")
 ------------------------------------------------|
 ------------------------------------------------|
 ------------------------------------------------|
 -2222222-4444444--------------------------------|
 -2222222-4444444-444444444444-------------------|
 -----------------444444444444-------------------|

Chorus ("Whatcha gonna do? Any one of you...")
------------------------------------------------|
------------------------------------------------|
666666-------------------6----------------------|
666666-666666-4444444-66-6----------------------|
444444-666666-4444444-66-4----------------------|
-------444444-2222222-44------------------------|    

Added On December 16th, 2013

SHARE

Comments

blog comments powered by Disqus

VERSIONS

ADVERTISEMENT