Houston Calls Tabs

Elephant And Castle

3 versions

TAB

            intro
e|--------------------------------------------------------------------|
B|--------------------------------------------------------------------|
G|------------------------------------------------------------------9-|
D|------4-4----------4-4----------4-4----------4-4----------4-4-----9-|
A|-4444-----4-4-2222-----2-2-0000-----0-0-0000-----0-0-4444-----4-4-7-|
E|--------------------------------------------------------------------|

Verse
e|-----------------------------|
B|-----------------------------|
G|66-6---44-4---22-2---22-2----|
D|66-6---44-4---22-2---22-2----| repeat a couple of times
A|44-4---22-2---00-0---00-0----|
E|-----------------------------|
     ****   ****   ****   ****
" Calling all tickets.."
e|----------------------------------------------------------------|
B|----------------------------------------------------------------|
G|6-6-6-6-6-6-6-6-4-4-4-4-4-4-4-4-2-2-2-2-2-2-2-2-2-2-2-2-2-2-2-2-| i like
D|6-6-6-6-6-6-6-6-4-4-4-4-4-4-4-4-2-2-2-2-2-2-2-2-2-2-2-2-2-2-2-2-| to play
A|4-4-4-4-4-4-4-4-2-2-2-2-2-2-2-2-0-0-0-0-0-0-0-0-0-0-0-0-0-0-0-0-| this
E|----------------------------------------------------------------| part
                                                           stacato- play the
                                                            notes so that
                                                   there is a gap between
                                                                 them
play the first part of the verse a few times then play the second part but play the last 
a few more times then usual
CHORUS
"please just let go little girl..."
e|-------------------------------|
B|-------------------------------|
G|9-9----------6--------6--------|
D|9-9---9-9----6-7-7----6-7-7----|
A|7-7---9-9----4-7-7----4-7-7----|
E|------7-7------5-5------5-5----|
    ****  ****     ****     ****
Pre-Verse
e|--------|
B|--------|
G|6---8---|
D|x---x---|
A|4---6---|
E|--------|
play the first part of the verse again- it'll be the same chords but you'll palm mute at 
times
play the second part of the verse
play the chorus but DON'T palm mute
BRIDGE
e|----------|
B|----------| i don't know about the last chord....
G|9-6-4-6-9-|
D|9-6-4-6-9-|
A|7-4-2-4-7-|
E|----------|
  **********
solo part thingy
e|----------------------------------------------------| Repeat 3 times
B|----------------------------------------------------| get faster each time
G|-----8h9p8--------8h9p8-------8h9p8-----------------|
D|-----------9------------------------9-------6-------|
A|-7-7----------7-7---------7-7-----------7-7---7/9---|
E|----------------------------------------------------|

play the chorus- for the first time pm the first chord and play every thing open
play chorus two more times and
end on:
e|---|
B|---|
G|9/-|
D|9/-|
A|7/-|
E|---|

* = palm mute
/ = slide
h = hammer on
p = pull off    

Added On December 16th, 2013

SHARE

Comments

blog comments powered by Disqus

VERSIONS

ADVERTISEMENT