Ian Brown Tabs

Keep What Ya Got

2 versions

TAB

            Keep What Ya Got Tab by Ian Brown


-----------------------------------------------------------------------------
		Keep What Ya Got - Ian Brown Feat. Noel Gallagher
-----------------------------------------------------------------------------

Tabbed by: Rock God #1 (Leo C)

Tuning: Standard

Intro (has been transcribed down a few octaves):

e|--------|--------------------|
B|--------|--------------------|
G|--------|--------------------|  x3 of all, then repeat first bar
D|13------|--------------------|
A|--------|--------------------|
E|---11---|----13--14-13--11---|

Then:

e|-x--|
B|-x--|
G|-x--|  Repeat as required
D|-1--|
A|-1--|
E|-x--|

Verse:

e|-x-----x-----x---|
B|-x-----x-----x---|
G|-x-----x-----x---| You'll have to work out your own timing for this. It's
D|-1-----4-----6---| not that hard, so have a go.
A|-1-----4-----6---|
E|-x-----2-----4---|   x2

e|-x--------|-x---------|
B|-x--------|-x---------|
G|-x-(x 8)--|-x--(x 8)--| x1 then repeat first bar
D|-4--------|-6---------|
A|-4--------|-6---------|
E|-2--------|-4---------|

Chorus:

e|-x--------x---------x---------x---------x---------|
B|-x--------x---------x---------x---------x---------|
G|-x-(x 3)--x--(x 5)--x--(x 3)--x--(x 3)--x--(x 2)--| x3
D|-1--------4---------6---------4---------1---------|
A|-1--------4---------6---------4---------1---------|
E|-x--------2---------4---------2---------x---------|

e|-x--|
B|-x--|
G|-x--| After chorus, play this repeatedly. 
D|-6--|
A|-6--|
E|-4--|

Now go back to the 'after intro' repeated chord.

Repeat verse chords

Repeat chorus and 'after-chorus chord'

Break:

e|-x----------x----------|
B|-x----------x----------|
G|-x--(x 16)--x--(x 16)--|
D|-9---------11----------|
A|-9---------11----------|
E|-7----------9----------|

Repeat Chorus chords as required

Then:

e|-x--------x--------|
B|-x--------x--------|
G|-x-(x 8)--x-(x 8)--| x2
D|-4--------6--------|
A|-4--------6--------|
E|-2--------4--------|

End on:

e|-x--|
B|-x--|
G|-x--|
D|-1--|
A|-1--|
E|-x--|

Or, as the song suggest, repeat the intro softly as few times.

Legend:
x = Mute note
=============================================================================

Hope you liked the tab. Feel free to rate and comment.    

Added On December 4th, 2013

SHARE

Comments

blog comments powered by Disqus

VERSIONS

ADVERTISEMENT