Ill Nino Tabs

Bleed Like You

1 versions

TAB

            Title: Bleed Like You
Artist: Ill Nino
Tabber: satboog
Tempo = 
drop-a tuning (A E A D G B E)


INTRO (2x)

riff a
|--------| |---------------|    |--------------------|
|--------| |---------------|    |--------------------|
|--------| |---------------|    |--------------------|
|--------| |---------------| 3x |----x-x-x-x---------|
|--------| |---------------|    |----x-x-x-x---------|
|--------| |---------------|    |----x-x-x-x---------|
|--2-3-2-| |-0-2-0-2-3--2--|    |--0-----------------|

riff b
|--------| |---------------|    |--------------------|
|--------| |---------------|    |--------------------|
|--------| |---------------|    |----------5---------|
|--------| |---------------| 3x |-------5------------|
|--------| |---------------|    |----5---------------|
|--------| |---------------|    |--------------------|
|--2-3-2-| |-0-2-0-2-3--2--|    |--0-----------------|
                                     NH NH NH


VERSE

Bm G      (2x)
Bm G A F#



CHORUS

Bm D G Em (2x)



INTRO (riff b - 1x)
VERSE
CHORUS


SOLO

G   Bm A
G   F#


CHORUS (accoustic guitar)

Bm D G G9 G Em


CHORUS (2x)

INTRO (riff b - 1x)    

Added On December 16th, 2013

SHARE

Comments

blog comments powered by Disqus

ADVERTISEMENT