Into It Over It Tabs

Augusta Ga Acoustic

1 versions

TAB

            -------------------------------------------------------------------------------
                             Augusta GA - Into It Over It
-------------------------------------------------------------------------------
Tabbed by: Joe Miskimmins

Tuning:Db Ab Db F Ab Db (Half step down, then drop low estring a full step down 
and the G string half a step down)


Db|----------------------------------|
Ab|----------------------------------|
F |---7/0-0-----0--------------------|
Db|---------------0------0-----0-----|
Ab|---------0h2--------7-----7-------|
Db|-0----------------7-----5---------| 

(listen and you'll hear where it changes)

Db|--------------------------------------------------------------------|
Ab|---------------------------------------------------------------0----|
F |---7/0-0-----0---------------------0~------7~-------8----------5----|
Db|---------------0------0-----0------------------------------4---4----|
Ab|---------0h2--------7-----7------7------7--------9-------5-----5----|
Db|-0----------------7-----5------4------7-------9--------5-------5----|    

Added On December 16th, 2013

SHARE

Comments

blog comments powered by Disqus

ADVERTISEMENT