Into It Over It Tabs

Midnight Carroll Street

1 versions

TAB

            -------------------------------------------------------------------------------
                             Midnight: Carroll Street - Into It. Over It.
-------------------------------------------------------------------------------
Tabbed by: Straight Dave

Thanks to ryansingssongs over on youtube for help on the tuning. The song is pretty repetitive. 

Tuning: FACGCE


Intro / Verse / Bridge
E|-------------------------------------------------------------------------|
C|-------------------------------------------------------------------------|
G|-------------------------------------------------------------------------|
C|-0-0-0--0-0-0--4-4-0-4-0---9---9---9---9---9---9---9---------------------|
A|-0-0-0--0-0-0--3-3-3-3-3--12--12--12--12--11--11--11---------------------|
F|-4-4-4--2-2-2--0-0-0-0-0---0---0---0---0---0---0---0---------------------|


Chorus    ["call you out / call you at all"   "hear you out / hear you at all"   
"you will find me"]
E|--------------0-------|
C|--------------0-------|
G|-7-7-7-7-7---0--------|
C|-7-7-7-7-7---4--------|       x 2
A|-7-7-7-7-7---3--------|
F|--------------0-------|


Somewhere between caffeine and nicotine
You will find me unentertained and worn out
Pressed to the steps beside my house
It's somewhere between upset and sick it seems
To still find me the finest quality of pure anxiety
I'm searching for the solace to call you out
To call you at all

So somewhere midnight and Carroll Street
I will find you a colder shoulder than I'm used to
Bending receivers just to hear the truth
I'm demanding some answers
I'm keeping up with double standards
I am between the words you're telling me
With a fine toothed comb
I'm drawing lines in hindsight
Until the stories start to line up right
These details bent and broke us down
The finest rivalry of our anxiety
Searching for the courage to hear you out
To hear you at all
Somewhere between single life and sympathy
You will find me
You will find me

You will find me    

Added On December 16th, 2013

SHARE

Comments

blog comments powered by Disqus

ADVERTISEMENT