Iron Maiden Tabs

Can I play with Madness

9 versions

TAB

            Can I Play With Madness Tab by Iron Maiden


CAN I PLAY WITH MADNESS

INTRO- D C G

VERSE - D C G 
DONT NEED NO KEY.......BREAK OUT OF THIS BAD PLACE--- REPEAT THE CHORDS (D,A) THRICE

CHORUS--

D G D C

D G WHEN THERE'S NO VISION THERE AT ALL COMES PLAY OPEN-E


solo 

  E5            G5                 E5      G5         A5   E5          G5
e:---------------------------------------------------------------------------|
B:---------20------------------20--b(22----22-----Gliss----------------------|
G:19-b(21-----19--b(21----16-------------------------------------------------|
D:-----------------------------------------------------7----7b(9)--5-7-7-----|
A:---------------------------------------------------------------------------|
E:---------------------------------------------------------------------------|


          E5                                  G5           A5
e:---------------------------------------------------------------------------|
B:-----------------------------------------15-15b(17)~----Gliss-down---------|
G:--Gliss-----12-14-14b(16)-r14--12-14s12------------------------------------|
D:--------14-----------------------------------------------------------------|
A:---------------------------------------------------------------------------|
E:---------------------------------------------------------------------------|


e:---------------------------------------------------------------------------|
B:-------------------------------------------------------------------tremolob|
G:---------------15--17-----18-(17)-15-17-17b(18)-15-------------3---slow-dow|
D:-5--5------/17-------------------------------------------5--5--3---ward-ben|
A:-5--5----------------------------------------------------5--5--1-----------|
E:-3--3----------------------------------------------------3--3--------------|


                           
                           

e:-------------------------|
B:ar-----------------------|
G:n------------------------|
D:d---5-5----17------------|
A:----5-5----17--pick-slide|
E:----3-3------------------|


cOMMENTS,
megadeth_vortex@megadeth.com

-----------------------------------------------------------------------

if any one knows the chords for mr crowly,crawling,ecstasy mail me    

Added On December 4th, 2013

SHARE

Comments

blog comments powered by Disqus