Iron Maiden Tabs

Mother Of Mercy

1 versions

TAB

            ------------------------------------------------------------------

                 Iron Maiden - Mother of Mercy
------------------------------------------------------------------


Tabbed by: Garr1
Email: Garr.Chris@gmail.com

Tuning: EADGBE


Intro
e|------------------------------------------------------|
B|-----5-6---------5-6-8---5----------------------------|
G|-7-7-----7---7-7-----------5--------------------------|
D|-----------------------------7------------------------|
A|------------------------------------------------------|
E|------------------------------------------------------|

e|-------------5-5--------------------------------------|
B|-----5-6---------8-6-5--6p5---------------------------|
G|-7-7-----7------------------5-------------------------|
D|------------------------------7-----------------------|
A|------------------------------------------------------|
E|------------------------------------------------------|


Chords under intro lead
e|--5--------------5-------------------------------------|
B|--6--------------6-------------------------------------|
G|--7----10--9-----7----10--12---------------------------|
D|--7----10--10----7----10--12---------------------------|
A|--5----8---7-----5----8---10---------------------------|
E|-------------------------------------------------------|

Verse
e|--5--------------5-------------------------------------|
B|--6--------------6-------------------------------------|
G|--7----10--12----7---10--5-----------------------------|
D|--7----10--12----7---10--5-----------------------------|
A|--5----8---10----5---8---3-----------------------------|
E|-------------------------------------------------------|

Imterlude
e|------3---5------------3---5---------------------------|
B|------3---5------------3---5-----------3--2------------|
G|------3---6------------3---6-----------2--2------------|
D|-8----5---7--------8---5---7---3---5---2--2------------|
A|-8----5---7--x2----8---5---7---3---5---0--0------------|
E|-6----3---5--------6---3---5---1---3-------------------|

Repeat the verse chords then this

Break
e|------------------------------------------------------|
B|------------------------------------------------------|
G|--7-7-7-7-7--5--7----------------------12-------------|
D|--7-7-7-7-7--5--7---10-10-10-10-10-10--12-------------|
A|--5-5-5-5-5--3--5---8--8--8--8--8--7---10-------------|
E|------------------------------------------------------|


e|------------------------------------------------------|
B|------------------------------------------------------|
G|-7-7-7-7-7--5--7-----------------------5--------------|
D|-7-7-7-7-7--5--7----10-10-10-10-10-10--5--------------|
A|-5-5-5-5-5--3--5----8--8--8--8--8--7---3--------------|
E|------------------------------------------------------|

During the chords above. This is played

e|------------------------------------------------------|
B|------------------------------------------------------|
G|---------------------12------9------------------------|
D|---7-------10-----10----10-\---7----------------------|
A|-5---5--/-8-------------------------------------------|
E|------------------------------------------------------|

e|------------------------------------------------------|
B|------------------------------------------------------|
G|-----------------------12---------14------------------|
D|---7---------10-----10----10-/-12---------------------|
A|-5---5--/--8------------------------------------------|
E|------------------------------------------------------|

Harmony for the above

e|-----------------------15-----------------------------|
B|----10---------13------------17-----------------------|
G|--7----7--/-10------14----14----14--------------------|
D|------------------------------------------------------|
A|------------------------------------------------------|
E|------------------------------------------------------|


e|---------------------15--------17---------------------|
B|----10--------13------------15------------------------|
G|--7----7-/-10-----17-----17---------------------------|
D|------------------------------------------------------|
A|------------------------------------------------------|
E|------------------------------------------------------|

Repeat the verse and interlude 

Chorus
e|-----------------------------------------------------|
B|-----------------------------------------------------|
G|--7--10--9--8----------------------------------------|
D|--7--10--9--8----------------------------------------|
A|--5--8---7--6----------------------------------------|
E|-----------------------------------------------------|

Interlude 2 (I think Adrian is tuned to drop D)
e|------------------------------------------------------|
B|------------------------------------------------------|
G|----------8---8-10------------8--10-------------------|
D|--5---7---8---8-10---5----7---8--10-------------------|
A|--5---7---6---6-8----5----7---6--8--------------------|
E|--3---5--------------3----5---------------------------|

Chords for Adrian's Solo
e|------------------------------------------------------|
B|------------------------------------------------------|
G|-2---5-----------2---5--------------------------------|
D|-2---5---3---5---2---5---3----------------------------|
A|-0---3---3---5---0---3---3----------------------------|
E|---------1---3-----------1----------------------------|

Adrian Smith solo
e|----7br7-5h7---5-----------5--------------------------|
B|-8b----------8---8p5-----5----8p5---------------------|
G|----------------------7b----------8-7p5---7---5-------|
D|----------------------------------------7---7---7-----|
A|------------------------------------------------------|
E|------------------------------------------------------|

e|------------------------------------------------------|
B|------------------------------------------------------|
G|---------5h7-7br7p5-----5-----------------------------|
D|-----5h7------------7-5---7p5---5h7-------------------|
A|-5h7--------------------------7-----------------------|
E|------------------------------------------------------|


e|------------------------------------------------------|
B|-----5h8p5h8p5---5h8p5h8p5---5h8p5h8p5----------------|
G|-5h7-----------8-----------8-----------8--------------|
D|------------------------------------------------------|
A|------------------------------------------------------|
E|------------------------------------------------------|


e|----5h7---5h7h8------5-5----5-5----5-5---5------------|
B|-8b-----8--------8b------8b-----8b---------8p5--------|
G|------------------------------------------------------|
D|------------------------------------------------------|
A|------------------------------------------------------|
E|------------------------------------------------------|


e|--8br8br8br8---8p5-8--5-------------------------------|
B|------------------------------------------------------|
G|------------------------------------------------------|
D|------------------------------------------------------|
A|------------------------------------------------------|
E|------------------------------------------------------|

Repeat the break, verse interlude chorus and then do this

Lead over the outro chorus
e|------------------------------------------------------|
B|---3---6---5--4-----3--10--9---8----------------------|
G|---5b--8b--7b-6b----5b-12b-11b-10b--------------------|
D|------------------------------------------------------|
A|------------------------------------------------------|
E|------------------------------------------------------|

                  Finish on this
e|------------------------------------------------------|
B|------------------------------------------------------|
G|------------7-7-7-7-7-5---7---------------------------|
D|------------7-7-7-7-7-5---7---------------------------|
A|------------5-5-5-5-5-3---5---------------------------|
E|------------------------------------------------------|


Done    

Added On December 16th, 2013

SHARE

Comments

blog comments powered by Disqus

ADVERTISEMENT