Itchy Poopzkid Tabs

Its Tricky

1 versions

TAB

            Tabbed by Quinity
Intepret: Itchy Poopzkid
Title: It's Tricky
Album: Lights Out London

Chorus Part 1
D|--------------------------------------------|
A|--------------------------------------------|
F|--------------------------------------------|
C|-5-/---5--5--5----5-5--5--5-5--5------------|
G|-5-/---5--5--5----5-5--5--5-5--5---1--1-2-3-|
D|-3-/---3--3--3----3-3--3--3-3--3-3--3-------|
Chorus Part 2
D|-----------------------|
A|-----------------------|
F|-----------------------|
C|-5-5-5-3--5-5-5-3------|
G|-3-3-3-1--3-3-3-1------|
D|-----------------------|

Bridge Part 1
D|-------------------------|
A|-------------------------|
F|-5^-5^-------------------|
C|--------5--5-------------| 3x
G|--------5----------------|
D|--------3-----3----------|

Bridge Part 2
D|-----------------------|
A|-----------------------|
F|-----------------------|
C|-5-5-5-3-3-3-5---------|
G|-3-3-3-1-1-1-5---------|
D|-------------3---------|

3rd Verse( When I wake up people take most....)

D|--------------------------------------------------|
A|--------------------------------------------------|
F|--------------------------------------------------|
C|-5--5----5--5/-----5--5-----5-5-5-3-3-3-5---------|
G|-5--5----5--5/-----5--5-----3-3-3-1-1-1-5---------|
D|-3--3----3--3/-----3--3-----------------3---------|

Order:
Chorus Part 1
Chorus Part 2

Chorus Part 1
Chorus Part 2

Chorus Part 1
Chorus Part 2

Bridge Part 1
Bridge Part 2

3rd Verse
Bridge Part 1
Bridge Part 2

Chorus Part 1
Chorus Part 2

You can see here how he plays the solo(in the beginning): 
http://www.youtube.com/watch?v=dYbHCQvq2Jg&feature=related    

Added On December 16th, 2013

SHARE

Comments

blog comments powered by Disqus

ADVERTISEMENT