Jay Brannan Tabs

The Spanglish Song

1 versions

TAB

            [[The Spanglish Song]]
                                     -Jay Brannan-

One of my first attempts at tabbing!  I'll give the different parts tabbed out, followed by an
outline of when to play which part.  Listen along to the song to make sure you get the timing
right/know where to sing or not.

Standard tuning, no capo

Verse (/Intro)
                                                   
E-2-----3--------------------------|-2-----3------------------0-------|
B---3------3------1--------3-------|---3------3------------0--3-------|
G-----2------0------0--------0---0-|-----2------0--------0----3-------|
D--------------0------2--------4---|--------------0----2------0-------|
A-----------------------3----------|-----------------3--------0-------|
E----------------------------------|----------------------------------|


Interlude to Chorus ("I've got nothing to lose…")

E-------0--------------------------|-------0--------------------------|
B-----3---------1-------1----------|-----3---------1-------1----------|
G---2---------2-------0---------0--|---2---------2-------0---------0--|
D-0---------2-------2---------0----|-0---------2-------2---------0----|
A---------0-------3---------2------|---------0-------3---------2------|
E-------------------------3--------|-------------------------3--------|


E-------0--------------------------|
B-----3---------1-------1----------|
G---2---------2-------0------------|
D-0---------2-------2--------------|
A---------0-------3----------------|
E-------------------------3--------|


Chorus

E----2-------0-------0-------------|----2-------0------0----1----2----|
B----3-------1-------1--------3----|----3-------1------1----2----3----|
G-----------------------------0----|-------------------0----0----0----|
D-0----0---------------------------|-0----0---------------------------|
A---------0----0--3----0-----------|---------0----0-------------------|
E-------------------------3--------|----------------------------------|


Bridge

E-------2-3-2------------0-3-------|-------2-3-2----------------------|
B-----3-------3--------3-----------|-----3-------3--------------------|
G---2-----------0----3-------------|---2-----------0------------------|
D-0--------------------------------|-0-------------------2------------|
A------------------1---------------|------------------3--------2--4---|
E----------------------------------|------------------------3-----5---|


Interlude to Final Chorus

E----------------------------------|
B----------------------------------|
G----------------------------------|
D-0--------------0-----------------|
A----0---3-----3----0---3----------|
E-----------3----------------------|


Final Chorus

E----------------------------------|
B----------------------------------|
G----------------------------------|
D-0--------------0-----------------|
A----0---3-----3----0---3--4--5----|
E-----------3----------------------|


Verse x 6
Interlude x 1
Chorus x 2
Verse x 3
Interlude x 1
Chorus x 2
Bridge x 3
Chorus x 2
Interlude to Final Chorus x 1
Final Chorus x 2    

Added On December 16th, 2013

SHARE

Comments

blog comments powered by Disqus

ADVERTISEMENT