Jeff Beal Tabs

Monk Theme

4 versions

TAB

            Monk Theme Tab by Jeff Beal


-------------------------------------------------------------------------------
			     MONK THEME SONG - Jeff Beal
-------------------------------------------------------------------------------
Tabbed by: Bishk	
Email: egginz@gmail.com

The TV show "Monk" had its theme written by Jeff Beal.
Apparently, this song won an Emmy. GOOD WORK JEFF!!!!
This tune can be found after the person gets killed in each episode,
when you see the Golden Gate bridge and the letters MONK appear.

This is the lead guitar part, theres also a rythm guitar and a double bass.

My first tab. Comments, please.


Tuning: Standard (Acoustic Guitar)

e|-2-23345-20-0----22--2-23345-20-0----5--2-23357-320--8\7-2/3-3-------------|
B|-----------3--323--------------3--323--------------4-----------------------|
G|---------------------------------------------------------------------------|
D|---------------------------------------------------------------------------|
A|---------------------------------------------------------------------------|
E|---------------------------------------------------------------------------|

e|-235-2---2---2---957---5---------------------------------------------------|
B|------353-353-3-----875----------------------------------------------------|
G|---------------------------------------------------------------------------|
D|---------------------------------------------------------------------------|
A|---------------------------------------------------------------------------|
E|---------------------------------------------------------------------------|

e|-2345-20-0----22--2-2345-20-0----5--2-2357-767-12-10-9-755-----------------|
B|--------3--323-------------3--323------------------------------------------|
D|---------------------------------------------------------------------------|
A|---------------------------------------------------------------------------|
E|---------------------------------------------------------------------------|

e|-235-2---2---2---957---5---------------------------------------------------|
B|------353-353-3-----875----------------------------------------------------|
G|---------------------------------------------------------------------------|
D|---------------------------------------------------------------------------|
A|---------------------------------------------------------------------------|
E|---------------------------------------------------------------------------|

e|-2345-20-0----22--2-2335-2---2---------------------------------------------|
B|--------3--323------------353-353-7\--3------------------------------------|
D|-------------------------------------2-------------------------------------|
A|---------------------------------------------------------------------------|
E|---------------------------------------------------------------------------|


 /  slide up
 \  slide down


100% accurate. Enjoy!
===============================================================================    

Added On December 5th, 2013

SHARE

Comments

blog comments powered by Disqus

VERSIONS

ADVERTISEMENT