Joanna Newsom Tabs

Peach Plum Pear

4 versions

TAB

            Peach Plum Pear Tab by Joanna Newsom


Joanna Newsom
"Peach Plum Pear"
The Milk-Eyed Mender
Tabbed by Devin McGinty
autumn42@gmail.com

This seems to be one Joanna Newsom tab that a lot of people want to try, but nobody can
it perfect. I'm not making promises, but here's what I've got. The one other chord
was correct, but a half step off. So here's my take on it. My first tab, blah blah blah, 
uh beginnur. No, seriously. Go right ahead and criticize me. I don't really care.

Chords:

    Dm     Bb     Gm     Csus   C
e|--5------6------3------8------8------|
B|--6------6------3------8------8------|
G|--7------7------3------10-----9------|
D|--7------8------5------10-----10-----|
A|--5------8------5------10-----10-----|
E|---------6------3------8------8------|

Intro:

   |Dm    |Bb     |Gm    |Csus C | x2

Verse:

      Dm
   We speak in the store;
       Bb
   I'm a sensitive bore.
            Gm
   You seem markedly more
           Csus      C
   and I'm oozing surprise.


Then there are also some breaks that I play like this:

e|------------------------------------------------------------|
B|------------------------------------------------------------|
G|-----------7-------7-------7--------------------------------|
D|----------------------------------------8-------8-------8---|
A|----5---------5---------5-----------------------------------|
E|---------------------------------6---------6---------6------|
   Go na nanana na nanana na na    na nanana na nanana na na

e|------------------------------------------------------------|
B|------------------------------------------------------------|
G|---------3-------3-------3--------------10------10------10--|
D|------------------------------------------------------------|
A|------------------------------------------------------------|
E|--3---------3---------3----------8---------8---------8------|
    na now na now  na now  na now    

Added On December 5th, 2013

SHARE

Comments

blog comments powered by Disqus

VERSIONS

ADVERTISEMENT