John 5 Tabs

Soul Of A Robot

1 versions

TAB

            Soul Of A Robot Tab by John 5


john 5's
soul of a robot

legend
\\full slide down
\slide down
/slide up
pm.. palm mute
~let ring

intro
e|--------------------------------------------|
B|--------------------------------------------|
G|-9\\--------9\\--------9\\--------9---9-----|
D|-9\\---578--9\\---575--9\\---578--9---9---3-|
A|-7\\-0-578--7\\-0-575--7\\-0-578--7---7---3-|
E|-----00356------00353------00356---000-0001-| x2

verse
e|--------------------------|
B|-171212171212171212131212-|
G|--------------------------|
D|--------------------------|
A|--------------------------|x2
E|--------------------------|

e|-171212171212171212131212-|
B|--------------------------|
G|--------------------------|
D|--------------------------|
A|--------------------------|x2
E|--------------------------|
____________play ths 2ce________

e|----------------------|
B|-17151715171515131312-|
G|----------------------|
D|----------------------|
A|----------------------|
E|----------------------|

e|-------------------15-15-|
B|-171517151715171515-15---|
G|-------------------------|
D|-------------------------|
A|-------------------------|
E|-------------------------|
____________play ths 2ce________

e|-1212121212---------| (2nd time play 13s not 11s)
B|-----------12121111-|
G|--------------------|
D|--------------------|
A|--------------------|x3
E|--------------------|
    ^these arnt exact but its th idea.v
e|-121212121212121212-|
B|--------------------|
G|--------------------|
D|--------------------|
A|--------------------|
E|--------------------|
_______play 2ce__________

chr
e|--------------------------------------------|
B|--------------------------------------------|
G|-9\\--------9\\--------9\\--------9---9-----|
D|-9\\---578--9\\---575--9\\---578--9---9---3-|
A|-7\\-0-578--7\\-0-575--7\\-0-578--7---7---3-|
E|-----00356------00353------00356---000-0001-|

verse2
e|----------------------------------|
B|-17\12\1017\12\1017\12\1013\12\10-|
G|----------------------------------|
D|----------------------------------|
A|----------------------------------|x2
E|----------------------------------|

e|-17\12\1017\12\1017\12\1013\12\10-|
B|----------------------------------|
G|----------------------------------|
D|----------------------------------|
A|----------------------------------|x2
E|----------------------------------|
______________play ths 2ce____________

e|----------------------|
B|-17151715171515131312-|
G|----------------------|
D|----------------------|
A|----------------------|
E|----------------------|

e|-------------------15-15-|
B|-171517151715171515-15---|
G|-------------------------|
D|-------------------------|
A|-------------------------|
E|-------------------------|
____________play ths 2ce________

e|-1212121212---------| (2nd time play 13s not 11s)
B|-----------12121111-|
G|--------------------|
D|--------------------|
A|--------------------|x3
E|--------------------|
    ^these arnt exact but its th idea.v
e|-121212121212121212-|
B|--------------------|
G|--------------------|
D|--------------------|
A|--------------------|
E|--------------------|
_______play 2ce__________

e|-- 5-|-- 6-|-- 7-|-- (7)/-8~~-|
B|-10--|-12--|-13--|-(13)/14~~--|
G|-----|-----|-----|------------|
D|-----|-----|-----|------------|
A|-----|-----|-----|------------|
E|-----|-----|-----|------------|
  play each x number of times

a solo goes here? really? huh?!

e|------------------------------|
B|------------------------------|
G|-9--9--9-9--9--9-9--9--9-9--9-|
D|-7--7--7-9--9--9-9--9--9-9--9-|
A|-7007007-7007007-7007007-7007-|
E|--00-00---00-00---00-00---00--|
  pm...........................

e|-1212121212---------| (2nd time play 13s not 11s)
B|-----------12121111-|
G|--------------------|
D|--------------------|
A|--------------------|x3
E|--------------------|
    ^these arnt exact but its th idea.v
e|-121212121212121212-|
B|--------------------|
G|--------------------|
D|--------------------|
A|--------------------|
E|--------------------|
_______play 2ce__________

outro
e|---------------------|
B|---------------------|
G|----5/78\5----5/78\5-|
D|-9\\5/78\5-9\\5/78\5-|
A|-9\\3/56\3-9\\3/56\3-|
E|-7\\-------7\\-------|

e|---------------------|
B|---------------------|
G|----3/56\3----3/56\3-|
D|-7\\3/56\3-7\\3/56\3-|
A|-7\\1/34\1-7\\1/34\1-|
E|-5\\-------5\\-------|

i will work on the rhythem guitar when i get chance n ill work on my spellings too.
spill. message ne comments    

Added On December 5th, 2013

SHARE

Comments

blog comments powered by Disqus

ADVERTISEMENT