John Frusciante Tabs

A Name

3 versions

TAB

            A Name Tab by John Frusciante


Artist: John Frusciante
Title: A name
Album: Curtains (2005)


B           F#     G#
These don't have a name
            B       F#              G#              
I've been a fool to let it out that way
          B              G#
And it'll keep on coming back
  B         F#      G#
A fool gets laughed at
         G# B      C#m    G#
and I'll go on and on and on
G#         B            C#m      G#
Letting it out when the feelings strong
  G#      B         C#m    G#
I wonder who in the single thing
G#        B              C#m   G#          
Made this night and this ugly dreams
B          F#  G#
These all pass away
      B                 F#             G#
It is clear that one can see through a day
      B               G#
And i may have met my match
B          F# G#
Completely unattached
G#   B     C#m   G#
with noone noone noone
   G#      B
on whom to rely
      C#m       G#
Let's sing that song
G#            B     C#m     G#
well I didn't read the last page
G#             B          C#m    G#   
You thought og me at that final stage
G#    B      C#m   G#
eenie meenie miny moe
G#          B
It's about time
      C#m    G#
About time to go


'Solo' :

e-------------------------------|
B-----9-11-12-11-9--------------|
G---8---------------9-11-9-8----|
D-------------------------------|
A-------------------------------|
E-------------------------------|

e-------------9-11-9------------|
B-----9-11-12--------12-11-9----|
G---8---------------------------|
D-------------------------------|
A-------------------------------|
E-------------------------------|

e-------------------------------|
B-----9-11-12-11-9--------------|
G---8---------------9-11-9-8----|
D-------------------------------|
A-------------------------------|
E-------------------------------|

e-------------------------------|
B-------------------------------|
G---6-8-6---6-------------------|
D---------9---9--9-8-9-6--------|
A-------------------------------|
E-------------------------------|

This is my first tab, hope you enjoy. comments are welcome    

Added On December 5th, 2013

SHARE

Comments

blog comments powered by Disqus

VERSIONS

ADVERTISEMENT