John Frusciante Tabs

Your Warning

2 versions

TAB

            Your Warning Tab by John Frusciante


e-----------------------------2~-|
B---3---5---3---5---3---5---0-1~-|
G---4---5---4---5---4---5---0-2~-|
D-5~5-5~5-5~5-5~5-5~5-5~5-2~2-0~-|
A-5~--3~--5~--3~--5~--3~--2~2----|
E-3~------3~------3~------0~-----|

e-----------------------------2~-|
B---3---5---3---5---3---5---0-1~-|
G---4---5---4---5---4---5---0-2~-|
D-5~5-5~5-5~5-5~5-5~5-5~5-2~2-0~-|
A-5~--3~--5~--3~--5~--3~--2~2----|
E-3~------3~------3~------0~-----|

e-------------------------------2-|
B---3---5---3---5---3---5---0-1~1-|
G---4---5---4---5---4---5---0-2~2-|
D-5~5-5~5-5~5-5~5-5~5-5~5-2~2-0~0-|
A-5~--3~--5~--3~--5~--3~--2~2-----|
E-3~------3~------3~------0~------|

e-----------------------------2~-|
B---3---5---3---5---3---5---0-1~-|
G---4---5---4---5---4---5---0-2~-|
D-5~5-5~5-5~5-5~5-5~5-5~5-2~2-0~-|
A-5~--3~--5~--3~--5~--3~--2~2----|
E-3~------3~------3~------0~-----|

e-------------------|
B---3---5---7----7--|
G---4---5---8----8--|
D---5---7---9----10-|
A--5---7---9---10---|
E-3--35--57--78-----|x3

e---------2-2222-|
B---3---0-1-1111-|
G---4---0-2-2222-|
D---5---2-0-0000-|
A--5---2---------|
E-3--30--0-------|

e----------------------|
B-8888-7777-5555-33-77-|
G-9999-7777-5555-44-77-|
D-9999-9999-5555-55-77-|
A-7777-9999-3333-55-55-|
E------7777------33----|x2

e-----------------------------|
B-----7~-5-8~--8-10-8-5-7-8-5-|
G-777-7~-5-9~---------------5-|
D-999-7~-5-9~---------------5-|
A-999-5~-3-7~--7~-----5-----3-|
E-777-------------------------|

e-------------------------------|
B-----7~-5-8~--8-10-8-5-7-8-5-5-|
G-777-7~-5-9~---------------5-5-|
D-999-7~-5-9~---------------5-5-|
A-999-5~-3-7~--7~-----5~----3-3-|
E-777---------------------------|

e-------------------|
B-8-10-8-5-7-8-5555-|
G--------------5555-|
D--------------5555-|
A-7~-----5~----3333-|
E-------------------|
Do this until the song ends.

e------------10-7~------|
B-8-10-8-7-8------------|
G----------------9-9-9--|
D--------0-------101010-|
A-7~-------------101010-|
E---------------88-8-8--|

e-----------------|
B-8-10-8-7-5-3-5~-|
G--------------5~-|
D--------0~----5~-|
A-7~-----------3~-|
E-----------------|
The last two lines are just something that u can do at the end when the piano comes in.    

Added On December 16th, 2013

SHARE

Comments

blog comments powered by Disqus

VERSIONS

ADVERTISEMENT