John Mayer Tabs

Another Kind Of Green

1 versions

TAB

            Another Kind Of Green Tab by John Mayer


Hey, this is an awesome song, try it out. You don't have to use ur thumbs, but it is easier!

Intro

e-----------------------------------------0-------------0---|
b-----4---------2-------(4)---------------0-------------0---|
g-----4h6p4-----3h4p3----4-----4----------6----------9/11---|
d-----6----6----4----4---4-----4----------7----------7/-9---|
a------------------------2--/6------------x-----7-9--9/11---|
e---4---------2------------------0-/4-8---5--/9---------0---|
    T         T                     T     T

Part 1: Verse

e--------------------------------------0---|
b-----4-----------2-------(4)----------0---|
g-----4h6p4-------3--------4-----4----11---|
d-----6----6------4--------4-----4-----9---|
a------------------------1-2--/6------11---|
e---4-----------2------4------------0------|


Part 2: Pre-chorus

e--------------- ---------------|
b--4h5--4---2--- ---4h5---------|
g--4----4---3--- ---4-----9-----|
d--4h6--6---4--- ---4h6---9-----|
a--4----x---x--- ---4-----9h11--|
e-------4---2--- ---------0-----|


Part 3: Chorus

e----------------------------------------0-------------0---|
b-----4--------2-------(4)---------------0-------------0---|
g-----4h6p4----3h4p3----4-----4----------6----------9/11---|
d-----6----6---4----4---4-----4----------7----------7/-9---|
a-----------------------2--/6------------x-----7-9--9/11---|
e---4---------2------------------0-/4-8--5--/9---------0---|

"I'm on the right side.."

e---0-------------0---|
b---0-------------0---|
g---6----------9/11---|
d---7----------7/-9---|
a---x-----7-9--9/11---|
e---5--/9---------0---|


Part 4: Bridge

e----0----0---|
b----0----0---|
g---13---11---|
d---11----9---|
a---12---11---|
e---------0---|    

Added On December 5th, 2013

SHARE

Comments

blog comments powered by Disqus

ADVERTISEMENT