John Petrucci Tabs

Damage Control

6 versions

TAB

            Damage Control Tab by John Petrucci


e--------------------------------------------|
B--------------------------------------------|
G---------------------------------4--2-------|
D--4-4--2--4--2--4-4--2--4--2--4--4--2-------|
A--4-4--2--4--2--4-4--2--4--2--4--2--0-------|
E--2-2--0--2--0--2-2--0--2--0--2-------------|


e--------------------------------------------|
B--------------------------------------------|
G------------------------------4/5-----------|
D--4-4--2--4--2--4-4--2--4--2--4/5-----------|
A--4-4--2--4--2--4-4--2--4--2--2/3-----------|
E--2-2--0--2--0--2-2--0--2--0----------------|


e--------------------------------------------|
B--------------------------------------------|
G---------------------------------4--2-------|
D--4-4--2--4--2--4-4--2--4--2--4--4--2-------|
A--4-4--2--4--2--4-4--2--4--2--4--2--0-------|
E--2-2--0--2--0--2-2--0--2--0--2-------------|


e--------------------------------------------|
B--------------------------------------------|
G--------------------------------------------|
D--4-4--2--4--2--4-4--2--4--2--5--4--3-------|
A--4-4--2--4--2--4-4--2--4--2--5--4--3-------|
E--2-2--0--2--0--2-2--0--2--0--3--2--1-------|


e----------------------------0----------------|
B--------------------------0------------------|
G--------3b(4)(3)-----------------------------|
D------4----------4------4--------------------|
A----4---------------4/5----------------------|
E--2------------------------------------------|

e---------------------------9/12/9------------|
B-------------------------7-------------------|
G--------3b(4)(3)-----4/6---------------------|
D------4----------4/5-------------------------|
A----4----------------------------------------|
E--2------------------------------------------|


e--------------------------------------------|
B--------2---------7/5*----------------------|
G----3---------4/6---------------------------|
D------4---4/5-------------------------------|
A--------------------------------------------|
E--2-----------------------------------------|

e--------------0-----------------7/9-/12-/14-/15-|
B----------------0-----------5/7-----------------|
G------------------3-----4/6---------------------|
D----4p2---2---------4/5-------------------------|
A--------4---4-----------------------------------|
E--2---------------------------------------------|

e----------------------------------------------|
B--------------------------------------17------|
G-----------15b(16)(15)-------------16---------|
D--------16-------------16-------16------------|
A-----16-------------------16/17---------------|
E--14------------------------------------------|

e--------------------------------------21/24/21-|
B-----------------------------------19----------|
G-----------15b(16)(15)-------16/18-------------|
D--------16-------------16/17-------------------|
A-----16----------------------------------------|
E--14-------------------------------------------|

e--------------------------------------------|
B-----------14-------------19/17-------------|
G-----15-------------16/18-------------------|
D--------16----16/17-------------------------|
A--------------------------------------------|
E--14----------------------------------------|

e--------------------12----------------------21/24-|
B-----------------------12----------------19-------|
G--------------------------14-------16/18----------|
D-----16p14----14-------------16/17----------------|
A-----------16----16-------------------------------|
E--14----------------------------------------------|

e--14-15-------15-14-------14-12-------12----|
B--------12-15-------12-15-------------------|
G--------------------------------14-16-------|
D--------------------------------------------|
A--------------------------------------------|
E--------------------------------------------|

e---------------------------------------15-14-|
B-14h15p14------------------------15----------|
G----------16-14-16*-----------16----16-------|
D---------------------14-16-17----------------|
A---------------------------------------------|
E---------------------------------------------|

e-12-14-------15-14-------14-17-------17-----|
B-------12-15-------12-15-------14-17--------|
G--------------------------------------------|
D--------------------------------------------|
A--------------------------------------------|
E--------------------------------------------|


e-19-17-15--------------------------------15--|
B----------19-17-15--------------------17-----|
G-------------------18-16-14-16*---/14--------|
D---------------------------------------------|
A---------------------------------------------|
E---------------------------------------------|


e----19----20*-------------------------------|
B-17----17-----------------------------------|
G--------------------------------------------|
D--------------------------------------------|
A--------------------------------------------|
E--------------------------------------------|

Then repeat all of the above, it changes a bit but it`s almost
the same.

Then goes this:

e----------------------------------------------|
B--------------------------------------11-10---|
G-----------11b(12)(11)-------------12---------|
D--------12-------------12-------12------------|
A-----12-------------------12/13---------------|
E--10------------------------------------------|


e--------------14b(15)(14)--------------------|
B-----------15-------------15-------15-18-17--|
G-12-----14-------------------14/15-----------|
D-----16--------------------------------------|
A---------------------------------------------|
E---------------------------------------------|


e----------------------------------------------|
B--------------------------------------11-10---|
G-----------11b(12)(11)-------------12---------|
D--------12-------------12-------12------------|
A-----12-------------------12/13---------------|
E--10------------------------------------------|


e--------------------------------------------|
B--------------------------------------------|
G-12--11------11-9---------------7-6---------|
D--------12-9-------11-12-9----------7-9-5---|
A---------------------------12-------------7-|
E--------------------------------------------|


e--------------------------------------------|
B--------------------------------------------|
G-4-2-------2-----2---4-6-7---9-6-7-9--------|
D-----4---4-----4----------------------------|
A-------5-----5-----5-------7----------------|
E--------------------------------------------|

e--------------------------------------------|
B--------------------------------------11-10-|
G-----------11b(12)(11)-------------12-------|
D--------12-------------12-------12----------|
A-----12-------------------12/13-------------|
E--10----------------------------------------|


e--------------14b(15)(14)--------------------|
B-----------15-------------15-------15-18-17--|
G-12-----14-------------------14/15-----------|
D-----16--------------------------------------|
A---------------------------------------------|
E---------------------------------------------|


e----------------------------------------------|
B--------------------------------------11-10---|
G-----------11b(12)(11)-------------12---------|
D--------12-------------12-------12------------|
A-----12-------------------12/13---------------|
E--10------------------------------------------|


e--------------------------------------------|
B--------------------------------------------|
G-12--11------11-9---------------7-6---------|
D--------12-9-------11-12-9----------7-9-5---|
A---------------------------12-------------7-|
E--------------------------------------------|


e-----------------------------------------------|
B------------------------4--4------8*-7*h8p7----|
G-4-2----2---2-----------5--5----------------9--|
D-----4--2---2---/4-/5---4--4-------------------|
A--------0---0-----------4--4-------------------|
E------------------------3--3-------------------|


e---------------------------------------------|
B-------10---10/12*---10b(12)(10)p7-----------|
G-6*-7*----7------------------------9b(11-----|(9)
D---------------------------------------------|
A---------------------------------------------|
E---------------------------------------------|


e---------------------------------------------|
B---------------------------------------3---2-|
G-7-7b(9)-7b(9)-7b(9)p7----9------------------|
D-----------------------9--9-----2-4-5*---5---|
A--------------------------7------------------|
E---------------------------------------------|


e--------------------------------------------|
B-3----3-2-----------------------------------|
G----2--2-------------------9-------9-11-12--|
D-------------------9-11-12---11-12----------|
A--------------------------------------------|
E--------------------------------------------|
                   p.m. p.m. p.m. p.m. p.m.

e-------9-10*--0------5-6--5------------------|
B-10-12--------3----8--------8-7*----7-8-7*---|
G--------------2------------------7-----------|
D--------------0------------------------------|
A--------------0------------------------------|
E---------------------------------------------|
p.m.

e--------------0--0------15-17-18--17-15-14*---|
B--------------3--3----------------------------|
G-5---5--------2--2----------------------------|
D-5---5--------0--0----------------------------|
A-3---3--------0--0----------------------------|
E-3---3----------------------------------------|


e----14-15-14*-----------------------------0--0-----|
B-15--------------13/15-13-----------------3--3-----|
G-----------------12/14-12---10/12-10------2--2-----|
D-----------------10/12-10---10/12-10------0--0-----|
A----------------------------8-/10-8-------0--0-----|
E---------------------------------------------------|


e----5-6--5-------------------------------0--0-|
B--8--------8-7*---7-8-7*-----------------3--3-|
G----------------7-----------5---5--------2--2-|
D----------------------------5---5--------0--0-|
A----------------------------3---3--------0--0-|
E----------------------------3---3-------------|


e----15-17-18--17-15-14*----14-15-14*--------|
B------------------------15------------------|
G--------------------------------------------|
D--------------------------------------------|
A--------------------------------------------|
E--------------------------------------------|


e--------------------------------------------|
B--------------------------------------------|
G--5/7-5-------------------------------------|
D--5/7-5--3/5-3------------------------------|
A--3/5-3--3/5-3------------------------------|
E---------1/3-1------------------------------|    

Added On December 5th, 2013

SHARE

Comments

blog comments powered by Disqus