Johnny Cash Tabs

Ghost Riders In The Sky

7 versions

TAB

            Ghost Riders In The Sky Tab by Johnny Cash


this is my first tab so cool it if it is slopy.

the whole song is played whith a pick.

e-------------------------------------------------------|
b-------------------------------------------------------|
g-------------------------------------------------------|
d--------------------------------------------0-2-22---2-|
a----0-00-2-3-33-0---------------0-00-2-3-33--------3---|
e--0---------------3-33-0-3----0------------------------|


e------------------------------------------------------|
b------------------------------------------------------|
g------2-2-22------------------------------------------|
d--2-2--------2-2-22-----------------------------------|
a--------------------3-0--------3-33----2/3-00---0-----|
e------------------------1-11-1----------------3-------|


e---------|
b---------|
g---------|
d--22-22--|             play over and over realy fast
a-0-------|             for as long as you want
e----0----|

writen by Logan Small,
age 13    

Added On December 5th, 2013

SHARE

Comments

blog comments powered by Disqus