Jonas Brothers Tabs

Heart And Soul

1 versions

TAB

            *the tuning is one step down  -  DADGBe

e-----------------------------------------|
B-----------------------------------------|
G-----------------------------------------|
D-----------------------------------------|   x4
A----2-2-0-1-2----------------------------|
D--------------0-1-2-2-0-1-2-0------------|

e------------------------------------------------------------|
B------------------------------------------------------------|
G------------------------------------------------------------|
D----------4-------4---------------6-------6-----------------|
A------2-2-4-2-2-2-4-----------4-4-6-4-4-4-6-----------------|
D------2-2-2-2-2-2-2-----------4-4-4-4-4-4-4-----------------|
    gather round guys...       theres a lot more to music...

e------------------------------------------------------------|
B------------------------------------------------------------|
G------------------------------------------------------------|
D-------------------4-------4---------------6-------6--------|
A---------------2-2-4-2-2-2-4-----------4-4-6-4-4-4-6--------|
D---------------2-2-2-2-2-2-2-----------4-4-4-4-4-4-4--------|
   ques gonna be.....      your movin me

e------------------------------------------------------------|
B------------------------------------------------------------|
G------------------------------------------------------------|
D------4-------4--4--------------------------7---------------|
A--2-2-4-2-2-2-4--4--------------------------7---------------|
D--2-2-2-2-2-2-2--4--------------------------7---------------|
                  but if you...  or pump your fists...

e-----------------------------------------|
B-----------------------------------------|
G-----------------------------------------|
D---------------4-------------------------|
A---------------4-------2-1-0-------------|
D---------------2-------------------------|
  if you've got heart and soul you rock and

e-----------------------------------------|
B-----------------------------------------|
G-----------------------------------------|
D-----------------------------------------|   x2
A----2-2-0-1-2----------------------------|
D--------------0-1-2-2-0-1-2-0------------|
  roll

e--------------------------------------------------------------|
B--------------------------------------------------------------|
G--------------------------------------------------------------|
D----------4-------4-----------------6-------6-----------------|
A------2-2-4-2-2-2-4-------------4-4-6-4-4-4-6-----------------|
D------2-2-2-2-2-2-2-------------4-4-4-4-4-4-4-----------------|
    strum and drummin... greats did..

e-----------------------------------------------------|
B-----------------------------------------------------|
G-----------------------------------------------------|
D------------4-------4---------------6-------6--------|
A--------2-2-4-2-2-2-4-----------4-4-6-4-4-4-6--------|
D--------2-2-2-2-2-2-2-----------4-4-4-4-4-4-4--------|
   fake it.....             feel the beat...
  even though...

e-------------------------------------------|
B-------------------------------------------|
G-------------------------------------------|
D---4-----------------------7---------------|
A---4-----------------------7---------------|
D---4-----------------------7---------------|
    makin mistakes...       swagger like...

e-----------------------------------------|
B-----------------------------------------|
G-----------------------------------------|
D---------------4-------------------------|
A---------------4-------2-1-0-------------|
D---------------2-------------------------|
  if you've got heart and soul you rock and

e-----------------------------------------|
B-----------------------------------------|
G-----------------------------------------|
D-----------------------------------------|   x2
A----2-2-0-1-2----------------------------|
D--------------0-1-2-2-0-1-2-0------------|
  roll


solo pending....


e---------------------------------------------|
B---------------------------------------------|
G---------------------------------------------|
D--2------------------------------4-----------|
A--2------------------------------4-----------|
D--2------------------------------4-----------|
   if your livin and dyin for the music inside

e-------------------------------------------|
B-------------------------------------------|
G-------------------------------------------|
D------------7------------------------------|
A------------7------------------------------|
D------------7------------------------------|
     its the 1 for 5 never...     you can rock and

e-----------------------------------------|
B-----------------------------------------|
G-----------------------------------------|
D-----------------------------------------| x2
A----2-2-0-1-2----------------------------|
D--------------0-1-2-2-0-1-2-0------------|
   roll

e---------------------------------------------------------------|
B---------------------------------------------------------------|
G---------------------------------------------------------------|
D----------2----------4-----------------2--------------4--------|
A----------2----------4-----------------2--------------4--------|
D----------2----------4-----------------2--------------4--------|
  take it low..  right here..  to cheer.. rockstar hair
  --------------------------------------------------------------
             ^ palm mute
e------------------------------------------------------|
B------------------------------------------------------|
G------------------------------------------------------|
D----2------------4---------------7--------------------|
A----2------------4---------------7--------------------|
D----2------------4---------------7--------------------|
  scream... axl rose...  or sing...

e-----------------------------------------|
B-----------------------------------------|
G-----------------------------------------|
D---------------4-------------------------|
A---------------4-------2-1-0-------------|
D---------------2-------------------------|
  if you've got heart and soul you rock and

e-----------------------------------------|
B-----------------------------------------|
G-----------------------------------------|
D-----------------------------------------|
A----2-2-0-1-2----------------------------|
D--------------0-1-2-2-0-1-2-0------------|
  roll

e-----------------------------------------|
B-----------------------------------------|
G-----------------------------------------|
D---------------4-------------------------|
A---------------4-------2-1-0-------------|
D---------------2-------------------------|
  if you've got heart and soul you rock and

e-----------------------------------------|
B-----------------------------------------|
G-----------------------------------------|
D-----------------------------------------|   x4
A----2-2-0-1-2----------------------------|
D--------------0-1-2-2-0-1-2-0------------|
  roll    

Added On December 16th, 2013

SHARE

Comments

blog comments powered by Disqus

ADVERTISEMENT