Jonas Brothers Tabs

Work It Out

1 versions

TAB

            I got the tab with the full version of ''work it out,''....so I leave the link 
here if you wish to hear the song------------> http://www.youtube.com/watch?
v=X7ezzpxjFls

I think This tab is 100% correct
Leave a comment and if you have any corrections :D


Verse 1:

It all makes sense, everybody listen to the words.....

e|--------------------------------------|
B|--------------------------------------|
G|--------------7-7-7-7-----------------|
D|---5-5-5-5----7-7-7-7-----------------|  [x4]
A|---5-5-5-5----5-5-5-5-----------------|
E|---3-3-3-3----------------------------|



Chorus:

We got to work, work it out, before the day is done.....

e|-------------------------------------------| 
B|-------------------------------------------|
G|-----------------------7-7-7-7-7-7-7-7-----|
D|---7-7-7-7---5-5-5-5---7-7-7-7-7-7-7-7-----|     [x2]
A|---7-7-7-7---5-5-5-5---5-5-5-5-5-5-5-5-----|
E|---5-5-5-5---3-3-3-3-----------------------|

We got to work (work) work it out.....

e|-------------------------------------------| 
B|-------------------------------------------|
G|---5-5-5-5-------------7-7-7-7-7-7-7-7-----|
D|---5-5-5-5---5-5-5-5---7-7-7-7-7-7-7-7-----|     [x2]
A|---3-3-3-3---5-5-5-5---5-5-5-5-5-5-5-5-----|
E|-------------3-3-3-3-----------------------|


Verse 2:

She made her point, building up the the coverage just.....


e|--------------------------------------|
B|--------------------------------------|
G|--------------7-7-7-7-----------------|
D|---5-5-5-5----7-7-7-7-----------------|  [x4]
A|---5-5-5-5----5-5-5-5-----------------|
E|---3-3-3-3----------------------------|


Chorus:


We got to work, work it out, before the day is done.....

e|-------------------------------------------| 
B|-------------------------------------------|
G|-----------------------7-7-7-7-7-7-7-7-----|
D|---7-7-7-7---5-5-5-5---7-7-7-7-7-7-7-7-----|     [x2]
A|---7-7-7-7---5-5-5-5---5-5-5-5-5-5-5-5-----|
E|---5-5-5-5---3-3-3-3-----------------------|

We got to work (work) work it out.....

e|-------------------------------------------| 
B|-------------------------------------------|
G|---5-5-5-5-------------7-7-7-7-7-7-7-7-----|
D|---5-5-5-5---5-5-5-5---7-7-7-7-7-7-7-7-----|     [x2]
A|---3-3-3-3---5-5-5-5---5-5-5-5-5-5-5-5-----|
E|-------------3-3-3-3-----------------------|


Chorus:


We got to work, work it out, before the day is done.....

e|-------------------------------------------| 
B|-------------------------------------------|
G|-----------------------7-7-7-7-7-7-7-7-----|
D|---7-7-7-7---5-5-5-5---7-7-7-7-7-7-7-7-----|     [x2]
A|---7-7-7-7---5-5-5-5---5-5-5-5-5-5-5-5-----|
E|---5-5-5-5---3-3-3-3-----------------------|

We got to work (work) work it out.....

e|-------------------------------------------| 
B|-------------------------------------------|
G|---5-5-5-5-------------7-7-7-7-7-7-7-7-----|
D|---5-5-5-5---5-5-5-5---7-7-7-7-7-7-7-7-----|     [x2]
A|---3-3-3-3---5-5-5-5---5-5-5-5-5-5-5-5-----|
E|-------------3-3-3-3-----------------------|


End:

e|-------------------------------------------| 
B|-------------------------------------------|
G|-----------7-------7-----------------------|
D|---7---5---7---7---7-----------------------|     
A|---7---5---5---7---5-----------------------|
E|---5---3-------5---------------------------|    

Added On December 16th, 2013

SHARE

Comments

blog comments powered by Disqus

ADVERTISEMENT