Jose Gonzalez Tabs

Lovestain

3 versions

TAB

            Lovestain Tab by Jose Gonzalez


-----------------------------------------------------------------------------
03. Lovestain
-----------------------------------------------------------------------------
Tabbed by: Arto Schürch
Email:     arto_schuerch@gmx.ch


Tuning: D,A,D,G,B,d
Capo on 1st fret
tabbed relative to capo


d|----0~~~
B|--------
G|--------
D|--0~~~--
A|--------
D|0~~~----


[Intro], [Interlude] and Verse (repeat only first line):

  1   &   2   &   3   &   4   &    1   &   2   &   3   &   4   &
d|0-----------0-------------------|0-------0---------------0-------|
B|----1-----------1-------1-------|------------1-------1-------1---|
G|--------2-----------2-------2---|----2-----------2---------------|   2x
D|0-----------0---------------0---|--------0-----------------------|
A|--------3-----------3-----------|----3-----------3---0-----------|
D|--------------------------------|------------------------3---0---|

  1   &   2   &   3   &   4   &    1   &   2   &   3   &   4   &
d|0-----------0---------------2---|--------0---------------0-------|
B|----1-----------1-------1-------|3-----------1-------1-------1---|
G|--------2-----------2-----------|----2-----------2---------------|
D|0-----------0---------------0---|--------0-----------------------|
A|--------3-----------3-----------|----3-----------3---0-----------|
D|--------------------------------|------------------------3---0---|

  1   &   2   &   3   &   4   &    1   &   2   &   3   &   4   &
d|0-----------0-------------------|--------------------------------|
B|----1-----------1-------1-------|1-----------0-------0-----------|
G|--------2-----------2-------2---|--------0-------5-------5-------|
D|0-----------0---------------0---|----------------------------5---|
A|--------0^3---------3-----------|--------------------------------|
D|--------------------------------|----3-----------5---------------|


B-part:

  1   &   2   &   3   &   4   &    1   &   2   &   3   &   4   &
d|0-----------0-------------------|0---------------0---------------|
B|----1-----------1-------1-------|------------1-------1-------1---|
G|--------2-----------2-------2---|----2-----------2-------2-------|
D|------------0---------------0---|--------0-----------------------|
A|--------3-----------3-----------|--------------------------------|
D|1-------------------------------|----1-------1-------------------|

  1   &   2   &   3   &   4   &    1   &   2   &   3   &   4   &
d|0-----------0-------------------|0-------0---------------0-------|
B|----1-----------1-------1-------|------------1-------1-------1---|
G|--------2-----------2-------2---|----2-----------2---------------|
D|0-----------0---------------0---|--------0-----------------------|
A|--------3-----------3-----------|----3-----------3---0-----------|
D|--------------------------------|------------------------3---0---|

  1   &   2   &   3   &   4   &    1   &   2   &   3   &   4   &
d|0-----------0-------------------|0---------------0-----------0---|
B|----1-----------1-------1-------|--------1---------------1-------|
G|--------2-----------2-------2---|----2-------2-------2-----------|
D|--------------------------------|--------------------------------|
A|--------------------------------|--------------------------------|
D|1-------1---1-------1-------1---|----1-------1---------------1---|0


[Fill]:

  1   &   2   &   3   &   4   &    1   &   2   &   3   &   4   &
d|5-----------5-------------------|------------5-------5-----------|
B|----6-----------6-------6-------|0-------0x------0-------0-------|
G|--------7-----------7-------7---|----------------------------2---|
D|0-----------0---------------0---|--------------------------------|
A|--------3-----------3-----------|----0---------------------------|
D|--------------------------------|--------------------------------|

  1   &   2   &   3   &   4   &    1   &   2   &   3   &   4   &
d|0-----------0-------------------|0-------0---------------0-------|
B|----1-----------1-------1-------|------------1-------1-------1---|
G|--------2-----------2-------2---|----2-----------2---------------|
D|0-----------0---------------0---|--------0-----------------------|
A|--------3-----------3-----------|----3-----------3---0-----------|
D|--------------------------------|------------------------3---0---|

  1   &   2   &   3   &   4   &    1   &   2   &   3   &   4   &
d|5-------------------------------|--------------------------------|
B|----6-------6-------6-----------|6-------------------1-----------|
G|--------7-------7-------7---7---|--------7-------2-------0-------|
D|0-------0---0-------------------|--------------------------------|
A|--------------------0-------3---|--------------------------------|
D|--------------------------------|----3-------1-------------------|


Outro ("you left my heart stained"):

  1   &   2   &   3   &   4   &    1   &   2   &   3   &   4   &
d|0-----------0-------------------|0-------0---------------0-------|
B|----1-----------1-------1-------|------------1-------1-------1---|
G|--------2-----------2-------2---|----2-----------2---------------|
D|0-----------0---------------0---|--------0-----------------------|
A|--------3-----------3-----------|----3-----------3---0-----------|
D|--------------------------------|------------------------3---0---|

  1   &   2   &   3   &   4   &    1   &   2   &   3   &   4   &
d|0-----------0-------------------|0-------------------------------|
B|----1-----------1-------1-------|--------1-----------------------|
G|--------2-----------2-------2---|----2-------2-------------------|
D|--------------------------------|------------------------0~~~----|
A|--------------------------------|--------------------------------|
D|1-------1---1-------1-------1---|----1-------1---0---------------|    

Added On December 5th, 2013

SHARE

Comments

blog comments powered by Disqus

VERSIONS

ADVERTISEMENT