Junaid Jamshed Tabs

Aitebar

1 versions

TAB

            Aitebar Tab by Junaid Jamshed


Song: Aitebar (JUNAID JAMSHED)
Tabbed by: Gogy
Guitar: Acoustic
Tuning: Standard
Single guitar used!
Comments: This is all my work, if you found any mistake or want to
pass me any comment so please mail me at (gogy-guitarist@hotmail.com)

Chorus:

aitebar (C) bhee aa hi jayee (Am) ga
milo to sa (G) hee raasta koy (Am) ee
mill hi jayee (G) ga
chalo to sa (F.b1) hi
chalo to sa (E) hi
aitebar (C) bhee aa hi jayee (Am) ga
aa hi jayee (C) ga

E|---------------------------------2--------2---------|
B|------------3-------3--3-3m-5--5---5-3------5-3-----|
G|---0--0-2-4---0-2-4--------------------4--------2---|

E|----------------------2--------2--------------------|
B|---------3--3-3m-5--5---5-3------5-3----------------|
G|---0-2-4--------------------4--------2~~------------|

dhoop main (C) khara
jal raha hoon (Am) main
saaya do (C) mujhay
yeh mera (Am) junoon
yeh meri (G) jalan
hai meri (Am) saza
meri yeh (G) thakan
keh rahi hai (Am) kya
suno to (F.b1) sahi
suno to (E) sahi

aitebar (C) bhee aa hi jayee (Am) ga
aa hi jayee (C) ga

E|--------------------------------------------------------------|
B|---3-5---3~-5-3---3-------------------------------------------|
G|-------4--------5---5-4-5-4-2-0-2~-0-2~~-------------2~-0-2~~-|
D|-----------------------------------------2~-0-2~-2h4----------|
A|--------------------------------------------------------------|
E|--------------------------------------------------------------|

E|-2-------2-3-2-3-2-----5-2-3-2-----5-10-5-7-------------2-----|
B|---5-3-5-----------5-3---------5-3------------------3-5---5-3-|
G|------------------------------------------------2-4-----------|
D|--------------------------------------------2-4---------------|
A|--------------------------------------------------------------|
E|--------------------------------------------------------------|

E|-2-7-7^-5-2-7-5^-------------------------5-2-5-2---2-------2--|
B|-----------------3-5-5-3---3-5-3-5-3---3---------5---5-3-5----|
G|-------------------------4-----------4------------------------|
D|--------------------------------------------------------------|
A|--------------------------------------------------------------|
E|--------------------------------------------------------------|

E|-5-3-2-----5-3-2-3--------------------------------------------|
B|-------5-3---------5-3-----------3----------------------------|
G|-----------------------4-2-0-2-4-----0------------------------|
D|-----------------------------------4---4-2~~------------------|
A|--------------------------------------------------------------|
E|--------------------------------------------------------------|

kya ho ga (C) agar
zindagi (Am) zara
bhool si (C) gai
socho to (Am) zara
jangloon main (G) bhi
raastay to (Am) hain
hamain bhi (G) koi
mill hi jayee (Am) ga
chalo to (F.b1) sahi
chali to (E) sahi  

pyaar yaar (C) bhee ho hi jayee (Am) ga
milo to sa (G) hee raasta koy (Am) ee
mill hi jayee (G) ga
chalo to sa (F.b1) hi
chalo to sa (E) hi
aitebar (C) bhee aa hi jayee (Am) ga
aa hi jayee (C) ga...



practice up!
GOGY
*****    

Added On December 5th, 2013

SHARE

Comments

blog comments powered by Disqus

ADVERTISEMENT