Jupiter Jones Tabs

Still

1 versions

TAB

            Still by Jupiter Jones

The guitar only plays things like this:

E-------------------------|-----------------12-12-12-|
B-10-10-10-10-10-12-12-12-|--10-10-10-10-10----------|
G-9--9--9--9--9--9--9--9--|--9--9--9--9--9--9--9--9--|
D-------------------------|--------------------------| 
A-------------------------|--------------------------|
E-------------------------|--------------------------|

But you can also play things like this:

E---------------------|	E---------7--------|
B------10-------------|	B------10---10-----|
G----9----9----9------|	G----9---------9---|
D--7--------7---------|	D--7---------------| 
A---------------------|	A------------------|
E---------------------|	E------------------|


And these are the chords:


Intro:
A
A
e |---|---|---|---|---|
B |---|-x-|---|---|---|
G |---|-x-|---|---|---|
D |---|-x-|---|---|---|
A |---|---|---|---|---|
E |---|---|---|---|---|
A
A
e |---|---|---|---|---|
B |---|-x-|---|---|---|
G |---|-x-|---|---|---|
D |---|-x-|---|---|---|
A |---|---|---|---|---|
E |---|---|---|---|---|
F#m7
F#m7
e |---|---|---|---|---|
B |---|-x-|---|---|---|
G |---|-x-|---|---|---|
D |---|-x-|---|---|---|
A |---|---|---|---|---|
E |---|-x-|---|---|---|
E
E
e |---|---|---|---|---|
B |---|---|---|---|---|
G |-x-|---|---|---|---|
D |---|-x-|---|---|---|
A |---|-x-|---|---|---|
E |---|---|---|---|---|
Strophe A
A
e |---|---|---|---|---|
B |---|-x-|---|---|---|
G |---|-x-|---|---|---|
D |---|-x-|---|---|---|
A |---|---|---|---|---|
E |---|---|---|---|---|
So Still, das jeder von uns wusste, F#m7
F#m7
e |---|---|---|---|---|
B |---|-x-|---|---|---|
G |---|-x-|---|---|---|
D |---|-x-|---|---|---|
A |---|---|---|---|---|
E |---|-x-|---|---|---|
das hier ist, fuer immer, E
E
e |---|---|---|---|---|
B |---|---|---|---|---|
G |-x-|---|---|---|---|
D |---|-x-|---|---|---|
A |---|-x-|---|---|---|
E |---|---|---|---|---|
fuer immer und ein Leben A
A
e |---|---|---|---|---|
B |---|-x-|---|---|---|
G |---|-x-|---|---|---|
D |---|-x-|---|---|---|
A |---|---|---|---|---|
E |---|---|---|---|---|
und es war so still, das jeder von uns ahnte, F#m7
F#m7
e |---|---|---|---|---|
B |---|-x-|---|---|---|
G |---|-x-|---|---|---|
D |---|-x-|---|---|---|
A |---|---|---|---|---|
E |---|-x-|---|---|---|
hierfuer gibts kein Wort, E
E
e |---|---|---|---|---|
B |---|---|---|---|---|
G |-x-|---|---|---|---|
D |---|-x-|---|---|---|
A |---|-x-|---|---|---|
E |---|---|---|---|---|
A
A
e |---|---|---|---|---|
B |---|-x-|---|---|---|
G |---|-x-|---|---|---|
D |---|-x-|---|---|---|
A |---|---|---|---|---|
E |---|---|---|---|---|
das jemals das Gefuehl beschreiben kann. A
A
e |---|---|---|---|---|
B |---|-x-|---|---|---|
G |---|-x-|---|---|---|
D |---|-x-|---|---|---|
A |---|---|---|---|---|
E |---|---|---|---|---|
So still, das alle Uhren schwiegen, F#m7
F#m7
e |---|---|---|---|---|
B |---|-x-|---|---|---|
G |---|-x-|---|---|---|
D |---|-x-|---|---|---|
A |---|---|---|---|---|
E |---|-x-|---|---|---|
ja, die Zeit kam zum erliegen, E
E
e |---|---|---|---|---|
B |---|---|---|---|---|
G |-x-|---|---|---|---|
D |---|-x-|---|---|---|
A |---|-x-|---|---|---|
E |---|---|---|---|---|
F#m7
F#m7
e |---|---|---|---|---|
B |---|-x-|---|---|---|
G |---|-x-|---|---|---|
D |---|-x-|---|---|---|
A |---|---|---|---|---|
E |---|-x-|---|---|---|
so still und so verloren gingst du fort, Bm
Bm
e |---|-x-|---|---|---|
B |---|---|---|---|---|
G |---|---|---|-x-|---|
D |---|---|---|---|---|
A |---|-x-|---|---|---|
E |---|---|---|---|---|
C#m
C#m
e |---|---|---|-x-|---|
B |---|-x-|---|---|---|
G |---|---|---|---|---|-x-
D |---|-x-|---|---|---|
A |---|---|---|-x-|---|
E |---|---|---|---|---|
D
D
e |---|-x-|---|---|---|
B |---|---|-x-|---|---|
G |---|-x-|---|---|---|
D |---|---|---|---|---|
A |---|---|---|---|---|
E |---|---|---|---|---|
so still und so verloren gingst du fort. Refrain: A
A
e |---|---|---|---|---|
B |---|-x-|---|---|---|
G |---|-x-|---|---|---|
D |---|-x-|---|---|---|
A |---|---|---|---|---|
E |---|---|---|---|---|
E
E
e |---|---|---|---|---|
B |---|---|---|---|---|
G |-x-|---|---|---|---|
D |---|-x-|---|---|---|
A |---|-x-|---|---|---|
E |---|---|---|---|---|
C#m
C#m
e |---|---|---|-x-|---|
B |---|-x-|---|---|---|
G |---|---|---|---|---|-x-
D |---|-x-|---|---|---|
A |---|---|---|-x-|---|
E |---|---|---|---|---|
A
A
e |---|---|---|---|---|
B |---|-x-|---|---|---|
G |---|-x-|---|---|---|
D |---|-x-|---|---|---|
A |---|---|---|---|---|
E |---|---|---|---|---|
Ich hab so viel gehoert und doch kommts niemals bei mir an, A
A
e |---|---|---|---|---|
B |---|-x-|---|---|---|
G |---|-x-|---|---|---|
D |---|-x-|---|---|---|
A |---|---|---|---|---|
E |---|---|---|---|---|
E
E
e |---|---|---|---|---|
B |---|---|---|---|---|
G |-x-|---|---|---|---|
D |---|-x-|---|---|---|
A |---|-x-|---|---|---|
E |---|---|---|---|---|
C#m
C#m
e |---|---|---|-x-|---|
B |---|-x-|---|---|---|
G |---|---|---|---|---|-x-
D |---|-x-|---|---|---|
A |---|---|---|-x-|---|
E |---|---|---|---|---|
A
A
e |---|---|---|---|---|
B |---|-x-|---|---|---|
G |---|-x-|---|---|---|
D |---|-x-|---|---|---|
A |---|---|---|---|---|
E |---|---|---|---|---|
das ist der Grund warum ich Nachts nicht schlafen kann, A
A
e |---|---|---|---|---|
B |---|-x-|---|---|---|
G |---|-x-|---|---|---|
D |---|-x-|---|---|---|
A |---|---|---|---|---|
E |---|---|---|---|---|
E
E
e |---|---|---|---|---|
B |---|---|---|---|---|
G |-x-|---|---|---|---|
D |---|-x-|---|---|---|
A |---|-x-|---|---|---|
E |---|---|---|---|---|
C#m
C#m
e |---|---|---|-x-|---|
B |---|-x-|---|---|---|
G |---|---|---|---|---|-x-
D |---|-x-|---|---|---|
A |---|---|---|-x-|---|
E |---|---|---|---|---|
D
D
e |---|-x-|---|---|---|
B |---|---|-x-|---|---|
G |---|-x-|---|---|---|
D |---|---|---|---|---|
A |---|---|---|---|---|
E |---|---|---|---|---|
wenn ich auch tausend Lieder vom Vermissen schreib, heisst das noch nicht das ich versteh, E
E
e |---|---|---|---|---|
B |---|---|---|---|---|
G |-x-|---|---|---|---|
D |---|-x-|---|---|---|
A |---|-x-|---|---|---|
E |---|---|---|---|---|
C#m
C#m
e |---|---|---|-x-|---|
B |---|-x-|---|---|---|
G |---|---|---|---|---|-x-
D |---|-x-|---|---|---|
A |---|---|---|-x-|---|
E |---|---|---|---|---|
A
A
e |---|---|---|---|---|
B |---|-x-|---|---|---|
G |---|-x-|---|---|---|
D |---|-x-|---|---|---|
A |---|---|---|---|---|
E |---|---|---|---|---|
warum dieses Gefuehl fuer immer bleibt. Strophe A
A
e |---|---|---|---|---|
B |---|-x-|---|---|---|
G |---|-x-|---|---|---|
D |---|-x-|---|---|---|
A |---|---|---|---|---|
E |---|---|---|---|---|
F#m7
F#m7
e |---|---|---|---|---|
B |---|-x-|---|---|---|
G |---|-x-|---|---|---|
D |---|-x-|---|---|---|
A |---|---|---|---|---|
E |---|-x-|---|---|---|
So laut, die Stunden nach dem Aufschlag als es galt, E
E
e |---|---|---|---|---|
B |---|---|---|---|---|
G |-x-|---|---|---|---|
D |---|-x-|---|---|---|
A |---|-x-|---|---|---|
E |---|---|---|---|---|
A
A
e |---|---|---|---|---|
B |---|-x-|---|---|---|
G |---|-x-|---|---|---|
D |---|-x-|---|---|---|
A |---|---|---|---|---|
E |---|---|---|---|---|
das alles, zu erfassen und verstehen und es war, A
A
e |---|---|---|---|---|
B |---|-x-|---|---|---|
G |---|-x-|---|---|---|
D |---|-x-|---|---|---|
A |---|---|---|---|---|
E |---|---|---|---|---|
F#m7
F#m7
e |---|---|---|---|---|
B |---|-x-|---|---|---|
G |---|-x-|---|---|---|
D |---|-x-|---|---|---|
A |---|---|---|---|---|
E |---|-x-|---|---|---|
so laut, das alles was wir dachten nichts als Leere zu uns brachte E
E
e |---|---|---|---|---|
B |---|---|---|---|---|
G |-x-|---|---|---|---|
D |---|-x-|---|---|---|
A |---|-x-|---|---|---|
E |---|---|---|---|---|
F#m7
F#m7
e |---|---|---|---|---|
B |---|-x-|---|---|---|
G |---|-x-|---|---|---|
D |---|-x-|---|---|---|
A |---|---|---|---|---|
E |---|-x-|---|---|---|
so laut und so verloren war es hier, Bm
Bm
e |---|-x-|---|---|---|
B |---|---|---|---|---|
G |---|---|---|-x-|---|
D |---|---|---|---|---|
A |---|-x-|---|---|---|
E |---|---|---|---|---|
C#m
C#m
e |---|---|---|-x-|---|
B |---|-x-|---|---|---|
G |---|---|---|---|---|-x-
D |---|-x-|---|---|---|
A |---|---|---|-x-|---|
E |---|---|---|---|---|
D
D
e |---|-x-|---|---|---|
B |---|---|-x-|---|---|
G |---|-x-|---|---|---|
D |---|---|---|---|---|
A |---|---|---|---|---|
E |---|---|---|---|---|
als Stille bei uns wohnte anstatt Dir. Refrain: A
A
e |---|---|---|---|---|
B |---|-x-|---|---|---|
G |---|-x-|---|---|---|
D |---|-x-|---|---|---|
A |---|---|---|---|---|
E |---|---|---|---|---|
E
E
e |---|---|---|---|---|
B |---|---|---|---|---|
G |-x-|---|---|---|---|
D |---|-x-|---|---|---|
A |---|-x-|---|---|---|
E |---|---|---|---|---|
C#m
C#m
e |---|---|---|-x-|---|
B |---|-x-|---|---|---|
G |---|---|---|---|---|-x-
D |---|-x-|---|---|---|
A |---|---|---|-x-|---|
E |---|---|---|---|---|
A
A
e |---|---|---|---|---|
B |---|-x-|---|---|---|
G |---|-x-|---|---|---|
D |---|-x-|---|---|---|
A |---|---|---|---|---|
E |---|---|---|---|---|
Ich hab so viel gehoert und doch kommts niemals bei mir an, A
A
e |---|---|---|---|---|
B |---|-x-|---|---|---|
G |---|-x-|---|---|---|
D |---|-x-|---|---|---|
A |---|---|---|---|---|
E |---|---|---|---|---|
E
E
e |---|---|---|---|---|
B |---|---|---|---|---|
G |-x-|---|---|---|---|
D |---|-x-|---|---|---|
A |---|-x-|---|---|---|
E |---|---|---|---|---|
C#m
C#m
e |---|---|---|-x-|---|
B |---|-x-|---|---|---|
G |---|---|---|---|---|-x-
D |---|-x-|---|---|---|
A |---|---|---|-x-|---|
E |---|---|---|---|---|
A
A
e |---|---|---|---|---|
B |---|-x-|---|---|---|
G |---|-x-|---|---|---|
D |---|-x-|---|---|---|
A |---|---|---|---|---|
E |---|---|---|---|---|
das ist der Grund warum ich Nachts nicht schlafen kann, A
A
e |---|---|---|---|---|
B |---|-x-|---|---|---|
G |---|-x-|---|---|---|
D |---|-x-|---|---|---|
A |---|---|---|---|---|
E |---|---|---|---|---|
E
E
e |---|---|---|---|---|
B |---|---|---|---|---|
G |-x-|---|---|---|---|
D |---|-x-|---|---|---|
A |---|-x-|---|---|---|
E |---|---|---|---|---|
C#m
C#m
e |---|---|---|-x-|---|
B |---|-x-|---|---|---|
G |---|---|---|---|---|-x-
D |---|-x-|---|---|---|
A |---|---|---|-x-|---|
E |---|---|---|---|---|
D
D
e |---|-x-|---|---|---|
B |---|---|-x-|---|---|
G |---|-x-|---|---|---|
D |---|---|---|---|---|
A |---|---|---|---|---|
E |---|---|---|---|---|
wenn ich auch tausend Lieder vom Vermissen schreib, heisst das noch nicht das ich versteh, E
E
e |---|---|---|---|---|
B |---|---|---|---|---|
G |-x-|---|---|---|---|
D |---|-x-|---|---|---|
A |---|-x-|---|---|---|
E |---|---|---|---|---|
C#m
C#m
e |---|---|---|-x-|---|
B |---|-x-|---|---|---|
G |---|---|---|---|---|-x-
D |---|-x-|---|---|---|
A |---|---|---|-x-|---|
E |---|---|---|---|---|
A
A
e |---|---|---|---|---|
B |---|-x-|---|---|---|
G |---|-x-|---|---|---|
D |---|-x-|---|---|---|
A |---|---|---|---|---|
E |---|---|---|---|---|
warum dieses Gefuehl fuer immer bleibt. A
A
e |---|---|---|---|---|
B |---|-x-|---|---|---|
G |---|-x-|---|---|---|
D |---|-x-|---|---|---|
A |---|---|---|---|---|
E |---|---|---|---|---|
F#m7
F#m7
e |---|---|---|---|---|
B |---|-x-|---|---|---|
G |---|-x-|---|---|---|
D |---|-x-|---|---|---|
A |---|---|---|---|---|
E |---|-x-|---|---|---|
E
E
e |---|---|---|---|---|
B |---|---|---|---|---|
G |-x-|---|---|---|---|
D |---|-x-|---|---|---|
A |---|-x-|---|---|---|
E |---|---|---|---|---|
Strophe A
A
e |---|---|---|---|---|
B |---|-x-|---|---|---|
G |---|-x-|---|---|---|
D |---|-x-|---|---|---|
A |---|---|---|---|---|
E |---|---|---|---|---|
F#m7
F#m7
e |---|---|---|---|---|
B |---|-x-|---|---|---|
G |---|-x-|---|---|---|
D |---|-x-|---|---|---|
A |---|---|---|---|---|
E |---|-x-|---|---|---|
So still, obwohl ich dich mit jedem Tag vermiss E
E
e |---|---|---|---|---|
B |---|---|---|---|---|
G |-x-|---|---|---|---|
D |---|-x-|---|---|---|
A |---|-x-|---|---|---|
E |---|---|---|---|---|
F#m7
F#m7
e |---|---|---|---|---|
B |---|-x-|---|---|---|
G |---|-x-|---|---|---|
D |---|-x-|---|---|---|
A |---|---|---|---|---|
E |---|-x-|---|---|---|
und wo immer du auch gerade bist, Bm
Bm
e |---|-x-|---|---|---|
B |---|---|---|---|---|
G |---|---|---|-x-|---|
D |---|---|---|---|---|
A |---|-x-|---|---|---|
E |---|---|---|---|---|
C#m
C#m
e |---|---|---|-x-|---|
B |---|-x-|---|---|---|
G |---|---|---|---|---|-x-
D |---|-x-|---|---|---|
A |---|---|---|-x-|---|
E |---|---|---|---|---|
D
D
e |---|-x-|---|---|---|
B |---|---|-x-|---|---|
G |---|-x-|---|---|---|
D |---|---|---|---|---|
A |---|---|---|---|---|
E |---|---|---|---|---|
du zeigst mir, das Stille jetzt dein Freund geworden ist. Refrain A
A
e |---|---|---|---|---|
B |---|-x-|---|---|---|
G |---|-x-|---|---|---|
D |---|-x-|---|---|---|
A |---|---|---|---|---|
E |---|---|---|---|---|
E
E
e |---|---|---|---|---|
B |---|---|---|---|---|
G |-x-|---|---|---|---|
D |---|-x-|---|---|---|
A |---|-x-|---|---|---|
E |---|---|---|---|---|
C#m
C#m
e |---|---|---|-x-|---|
B |---|-x-|---|---|---|
G |---|---|---|---|---|-x-
D |---|-x-|---|---|---|
A |---|---|---|-x-|---|
E |---|---|---|---|---|
A
A
e |---|---|---|---|---|
B |---|-x-|---|---|---|
G |---|-x-|---|---|---|
D |---|-x-|---|---|---|
A |---|---|---|---|---|
E |---|---|---|---|---|
Ich hab so viel gehoert und doch kommts niemals bei mir an, A
A
e |---|---|---|---|---|
B |---|-x-|---|---|---|
G |---|-x-|---|---|---|
D |---|-x-|---|---|---|
A |---|---|---|---|---|
E |---|---|---|---|---|
E
E
e |---|---|---|---|---|
B |---|---|---|---|---|
G |-x-|---|---|---|---|
D |---|-x-|---|---|---|
A |---|-x-|---|---|---|
E |---|---|---|---|---|
C#m
C#m
e |---|---|---|-x-|---|
B |---|-x-|---|---|---|
G |---|---|---|---|---|-x-
D |---|-x-|---|---|---|
A |---|---|---|-x-|---|
E |---|---|---|---|---|
A
A
e |---|---|---|---|---|
B |---|-x-|---|---|---|
G |---|-x-|---|---|---|
D |---|-x-|---|---|---|
A |---|---|---|---|---|
E |---|---|---|---|---|
das ist der Grund warum ich Nachts nicht schlafen kann, A
A
e |---|---|---|---|---|
B |---|-x-|---|---|---|
G |---|-x-|---|---|---|
D |---|-x-|---|---|---|
A |---|---|---|---|---|
E |---|---|---|---|---|
E
E
e |---|---|---|---|---|
B |---|---|---|---|---|
G |-x-|---|---|---|---|
D |---|-x-|---|---|---|
A |---|-x-|---|---|---|
E |---|---|---|---|---|
C#m
C#m
e |---|---|---|-x-|---|
B |---|-x-|---|---|---|
G |---|---|---|---|---|-x-
D |---|-x-|---|---|---|
A |---|---|---|-x-|---|
E |---|---|---|---|---|
D
D
e |---|-x-|---|---|---|
B |---|---|-x-|---|---|
G |---|-x-|---|---|---|
D |---|---|---|---|---|
A |---|---|---|---|---|
E |---|---|---|---|---|
wenn ich auch tausend Lieder vom Vermissen schreib, D
D
e |---|-x-|---|---|---|
B |---|---|-x-|---|---|
G |---|-x-|---|---|---|
D |---|---|---|---|---|
A |---|---|---|---|---|
E |---|---|---|---|---|
E
E
e |---|---|---|---|---|
B |---|---|---|---|---|
G |-x-|---|---|---|---|
D |---|-x-|---|---|---|
A |---|-x-|---|---|---|
E |---|---|---|---|---|
heisst das noch nicht das ich versteh, heisst das noch nicht das ich versteh, A
A
e |---|---|---|---|---|
B |---|-x-|---|---|---|
G |---|-x-|---|---|---|
D |---|-x-|---|---|---|
A |---|---|---|---|---|
E |---|---|---|---|---|
E
E
e |---|---|---|---|---|
B |---|---|---|---|---|
G |-x-|---|---|---|---|
D |---|-x-|---|---|---|
A |---|-x-|---|---|---|
E |---|---|---|---|---|
C#m
C#m
e |---|---|---|-x-|---|
B |---|-x-|---|---|---|
G |---|---|---|---|---|-x-
D |---|-x-|---|---|---|
A |---|---|---|-x-|---|
E |---|---|---|---|---|
A
A
e |---|---|---|---|---|
B |---|-x-|---|---|---|
G |---|-x-|---|---|---|
D |---|-x-|---|---|---|
A |---|---|---|---|---|
E |---|---|---|---|---|
Ich hab so viel gehoert und doch kommts niemals bei mir an, A
A
e |---|---|---|---|---|
B |---|-x-|---|---|---|
G |---|-x-|---|---|---|
D |---|-x-|---|---|---|
A |---|---|---|---|---|
E |---|---|---|---|---|
E
E
e |---|---|---|---|---|
B |---|---|---|---|---|
G |-x-|---|---|---|---|
D |---|-x-|---|---|---|
A |---|-x-|---|---|---|
E |---|---|---|---|---|
C#m
C#m
e |---|---|---|-x-|---|
B |---|-x-|---|---|---|
G |---|---|---|---|---|-x-
D |---|-x-|---|---|---|
A |---|---|---|-x-|---|
E |---|---|---|---|---|
A
A
e |---|---|---|---|---|
B |---|-x-|---|---|---|
G |---|-x-|---|---|---|
D |---|-x-|---|---|---|
A |---|---|---|---|---|
E |---|---|---|---|---|
das ist der Grund warum ich Nachts nicht schlafen kann, A
A
e |---|---|---|---|---|
B |---|-x-|---|---|---|
G |---|-x-|---|---|---|
D |---|-x-|---|---|---|
A |---|---|---|---|---|
E |---|---|---|---|---|
E
E
e |---|---|---|---|---|
B |---|---|---|---|---|
G |-x-|---|---|---|---|
D |---|-x-|---|---|---|
A |---|-x-|---|---|---|
E |---|---|---|---|---|
C#m
C#m
e |---|---|---|-x-|---|
B |---|-x-|---|---|---|
G |---|---|---|---|---|-x-
D |---|-x-|---|---|---|
A |---|---|---|-x-|---|
E |---|---|---|---|---|
D
D
e |---|-x-|---|---|---|
B |---|---|-x-|---|---|
G |---|-x-|---|---|---|
D |---|---|---|---|---|
A |---|---|---|---|---|
E |---|---|---|---|---|
wenn ich auch tausend Lieder vom Vermissen schreib, heisst das noch nicht das ich versteh, E
E
e |---|---|---|---|---|
B |---|---|---|---|---|
G |-x-|---|---|---|---|
D |---|-x-|---|---|---|
A |---|-x-|---|---|---|
E |---|---|---|---|---|
C#m
C#m
e |---|---|---|-x-|---|
B |---|-x-|---|---|---|
G |---|---|---|---|---|-x-
D |---|-x-|---|---|---|
A |---|---|---|-x-|---|
E |---|---|---|---|---|
A
A
e |---|---|---|---|---|
B |---|-x-|---|---|---|
G |---|-x-|---|---|---|
D |---|-x-|---|---|---|
A |---|---|---|---|---|
E |---|---|---|---|---|
warum dieses Gefuehl fuer immer bleibt. Extracted by Melonos with thanks to Tanguysmusic for doing the first work.

Added On December 16th, 2013

SHARE

Comments

blog comments powered by Disqus

ADVERTISEMENT