Justin Timberlake Tabs

Losing My Way

1 versions

TAB

            -------------------------------------------------------------------------------
			     losing my way - Justin Timberlake
-------------------------------------------------------------------------------
Tabbed by: Jonas Boenisch
Email:JonasBoenisch@gmx.de

Tuning:standard

i think
cappo on the 4th sounds good but find your own favourite cappo position ;)

if you want to pick this song you can use this picking sample:
there are only 4 chords in the whole song so you can pick like this all the time:

first beat(/tact...): Em
e|-------0---------------0--------------|
B|---------------0---------------0------|
G|-----------0---------------0----------|
D|-------------------2------------------|
A|--------------------------------------|
E|---0----------------------------------|

second beat: D
e|-------2---------------2--------------|
B|---------------3---------------3------|
G|-----------2---------------2----------|
D|---0---------------0------------------|
A|--------------------------------------|
E|--------------------------------------|

third beat: G
e|-------3---------------3--------------|
B|---------------0---------------0------|
G|-----------0---------------0----------|
D|-------------------0------------------|
A|--------------------------------------|
E|---3----------------------------------|

fourth beat: Bm / Hm
e|-------2---------------2--------------|
B|---------------3---------------3------|
G|-----------4---------------4----------|
D|-------------------4------------------|
A|--------------------------------------|
E|---2----------------------------------|


so here's the song:

-----------------------------------------

Yea Uh, excuse me

Em
Em
e |---|---|---|---|---|
B |---|---|---|---|---|
G |---|---|---|---|---|
D |---|-x-|---|---|---|
A |---|-x-|---|---|---|
E |---|---|---|---|---|
D
D
e |---|-x-|---|---|---|
B |---|---|-x-|---|---|
G |---|-x-|---|---|---|
D |---|---|---|---|---|
A |---|---|---|---|---|
E |---|---|---|---|---|
Hi my name is Bob and I work at my job G
G
e |---|---|-x-|---|---|
B |---|---|---|---|---|
G |---|---|---|---|---|
D |---|---|---|---|---|
A |---|-x-|---|---|---|
E |---|---|-x-|---|---|
Bm
Bm
e |---|-x-|---|---|---|
B |---|---|-x-|---|---|
G |---|---|---|-x-|---|
D |---|---|---|-x-|---|
A |---|-x-|---|---|---|
E |---|---|---|---|---|
I make forty-some dollars a day Em
Em
e |---|---|---|---|---|
B |---|---|---|---|---|
G |---|---|---|---|---|
D |---|-x-|---|---|---|
A |---|-x-|---|---|---|
E |---|---|---|---|---|
D
D
e |---|-x-|---|---|---|
B |---|---|-x-|---|---|
G |---|-x-|---|---|---|
D |---|---|---|---|---|
A |---|---|---|---|---|
E |---|---|---|---|---|
I used to be the man in my hometown G
G
e |---|---|-x-|---|---|
B |---|---|---|---|---|
G |---|---|---|---|---|
D |---|---|---|---|---|
A |---|-x-|---|---|---|
E |---|---|-x-|---|---|
Bm
Bm
e |---|-x-|---|---|---|
B |---|---|-x-|---|---|
G |---|---|---|-x-|---|
D |---|---|---|-x-|---|
A |---|-x-|---|---|---|
E |---|---|---|---|---|
'til I started to lose my way Em
Em
e |---|---|---|---|---|
B |---|---|---|---|---|
G |---|---|---|---|---|
D |---|-x-|---|---|---|
A |---|-x-|---|---|---|
E |---|---|---|---|---|
D
D
e |---|-x-|---|---|---|
B |---|---|-x-|---|---|
G |---|-x-|---|---|---|
D |---|---|---|---|---|
A |---|---|---|---|---|
E |---|---|---|---|---|
It all goes back to when I dropped out at school G
G
e |---|---|-x-|---|---|
B |---|---|---|---|---|
G |---|---|---|---|---|
D |---|---|---|---|---|
A |---|-x-|---|---|---|
E |---|---|-x-|---|---|
Bm
Bm
e |---|-x-|---|---|---|
B |---|---|-x-|---|---|
G |---|---|---|-x-|---|
D |---|---|---|-x-|---|
A |---|-x-|---|---|---|
E |---|---|---|---|---|
Having fun, I was living the life Em
Em
e |---|---|---|---|---|
B |---|---|---|---|---|
G |---|---|---|---|---|
D |---|-x-|---|---|---|
A |---|-x-|---|---|---|
E |---|---|---|---|---|
D
D
e |---|-x-|---|---|---|
B |---|---|-x-|---|---|
G |---|-x-|---|---|---|
D |---|---|---|---|---|
A |---|---|---|---|---|
E |---|---|---|---|---|
But now I got a problem with that little white rock G
G
e |---|---|-x-|---|---|
B |---|---|---|---|---|
G |---|---|---|---|---|
D |---|---|---|---|---|
A |---|-x-|---|---|---|
E |---|---|-x-|---|---|
Bm
Bm
e |---|-x-|---|---|---|
B |---|---|-x-|---|---|
G |---|---|---|-x-|---|
D |---|---|---|-x-|---|
A |---|-x-|---|---|---|
E |---|---|---|---|---|
See I can put down the pipe And... Em
Em
e |---|---|---|---|---|
B |---|---|---|---|---|
G |---|---|---|---|---|
D |---|-x-|---|---|---|
A |---|-x-|---|---|---|
E |---|---|---|---|---|
D
D
e |---|-x-|---|---|---|
B |---|---|-x-|---|---|
G |---|-x-|---|---|---|
D |---|---|---|---|---|
A |---|---|---|---|---|
E |---|---|---|---|---|
it is breaking me down G
G
e |---|---|-x-|---|---|
B |---|---|---|---|---|
G |---|---|---|---|---|
D |---|---|---|---|---|
A |---|-x-|---|---|---|
E |---|---|-x-|---|---|
Bm
Bm
e |---|-x-|---|---|---|
B |---|---|-x-|---|---|
G |---|---|---|-x-|---|
D |---|---|---|-x-|---|
A |---|-x-|---|---|---|
E |---|---|---|---|---|
Watching the world spin round Em
Em
e |---|---|---|---|---|
B |---|---|---|---|---|
G |---|---|---|---|---|
D |---|-x-|---|---|---|
A |---|-x-|---|---|---|
E |---|---|---|---|---|
D
D
e |---|-x-|---|---|---|
B |---|---|-x-|---|---|
G |---|-x-|---|---|---|
D |---|---|---|---|---|
A |---|---|---|---|---|
E |---|---|---|---|---|
While my dreams fall down G
G
e |---|---|-x-|---|---|
B |---|---|---|---|---|
G |---|---|---|---|---|
D |---|---|---|---|---|
A |---|-x-|---|---|---|
E |---|---|-x-|---|---|
Bm
Bm
e |---|-x-|---|---|---|
B |---|---|-x-|---|---|
G |---|---|---|-x-|---|
D |---|---|---|-x-|---|
A |---|-x-|---|---|---|
E |---|---|---|---|---|
Is anybody out there? Em
Em
e |---|---|---|---|---|
B |---|---|---|---|---|
G |---|---|---|---|---|
D |---|-x-|---|---|---|
A |---|-x-|---|---|---|
E |---|---|---|---|---|
D
D
e |---|-x-|---|---|---|
B |---|---|-x-|---|---|
G |---|-x-|---|---|---|
D |---|---|---|---|---|
A |---|---|---|---|---|
E |---|---|---|---|---|
It is breaking me down G
G
e |---|---|-x-|---|---|
B |---|---|---|---|---|
G |---|---|---|---|---|
D |---|---|---|---|---|
A |---|-x-|---|---|---|
E |---|---|-x-|---|---|
Bm
Bm
e |---|-x-|---|---|---|
B |---|---|-x-|---|---|
G |---|---|---|-x-|---|
D |---|---|---|-x-|---|
A |---|-x-|---|---|---|
E |---|---|---|---|---|
No more friends around... Em
Em
e |---|---|---|---|---|
B |---|---|---|---|---|
G |---|---|---|---|---|
D |---|-x-|---|---|---|
A |---|-x-|---|---|---|
E |---|---|---|---|---|
D
D
e |---|-x-|---|---|---|
B |---|---|-x-|---|---|
G |---|-x-|---|---|---|
D |---|---|---|---|---|
A |---|---|---|---|---|
E |---|---|---|---|---|
And my dreams fall down... G
G
e |---|---|-x-|---|---|
B |---|---|---|---|---|
G |---|---|---|---|---|
D |---|---|---|---|---|
A |---|-x-|---|---|---|
E |---|---|-x-|---|---|
Bm
Bm
e |---|-x-|---|---|---|
B |---|---|-x-|---|---|
G |---|---|---|-x-|---|
D |---|---|---|-x-|---|
A |---|-x-|---|---|---|
E |---|---|---|---|---|
Is anybody out there? Em
Em
e |---|---|---|---|---|
B |---|---|---|---|---|
G |---|---|---|---|---|
D |---|-x-|---|---|---|
A |---|-x-|---|---|---|
E |---|---|---|---|---|
D
D
e |---|-x-|---|---|---|
B |---|---|-x-|---|---|
G |---|-x-|---|---|---|
D |---|---|---|---|---|
A |---|---|---|---|---|
E |---|---|---|---|---|
Can anybody out there hear me? G
G
e |---|---|-x-|---|---|
B |---|---|---|---|---|
G |---|---|---|---|---|
D |---|---|---|---|---|
A |---|-x-|---|---|---|
E |---|---|-x-|---|---|
Bm
Bm
e |---|-x-|---|---|---|
B |---|---|-x-|---|---|
G |---|---|---|-x-|---|
D |---|---|---|-x-|---|
A |---|-x-|---|---|---|
E |---|---|---|---|---|
'Cause I can't seem to hear myself Em
Em
e |---|---|---|---|---|
B |---|---|---|---|---|
G |---|---|---|---|---|
D |---|-x-|---|---|---|
A |---|-x-|---|---|---|
E |---|---|---|---|---|
D
D
e |---|-x-|---|---|---|
B |---|---|-x-|---|---|
G |---|-x-|---|---|---|
D |---|---|---|---|---|
A |---|---|---|---|---|
E |---|---|---|---|---|
Can anybody out there see me? G
G
e |---|---|-x-|---|---|
B |---|---|---|---|---|
G |---|---|---|---|---|
D |---|---|---|---|---|
A |---|-x-|---|---|---|
E |---|---|-x-|---|---|
Bm
Bm
e |---|-x-|---|---|---|
B |---|---|-x-|---|---|
G |---|---|---|-x-|---|
D |---|---|---|-x-|---|
A |---|-x-|---|---|---|
E |---|---|---|---|---|
'Cause I can't seem to see myself... Em
Em
e |---|---|---|---|---|
B |---|---|---|---|---|
G |---|---|---|---|---|
D |---|-x-|---|---|---|
A |---|-x-|---|---|---|
E |---|---|---|---|---|
D
D
e |---|-x-|---|---|---|
B |---|---|-x-|---|---|
G |---|-x-|---|---|---|
D |---|---|---|---|---|
A |---|---|---|---|---|
E |---|---|---|---|---|
There's gotta be a heaven somewhere G
G
e |---|---|-x-|---|---|
B |---|---|---|---|---|
G |---|---|---|---|---|
D |---|---|---|---|---|
A |---|-x-|---|---|---|
E |---|---|-x-|---|---|
Bm
Bm
e |---|-x-|---|---|---|
B |---|---|-x-|---|---|
G |---|---|---|-x-|---|
D |---|---|---|-x-|---|
A |---|-x-|---|---|---|
E |---|---|---|---|---|
Can you save me from this hell? Em
Em
e |---|---|---|---|---|
B |---|---|---|---|---|
G |---|---|---|---|---|
D |---|-x-|---|---|---|
A |---|-x-|---|---|---|
E |---|---|---|---|---|
D
D
e |---|-x-|---|---|---|
B |---|---|-x-|---|---|
G |---|-x-|---|---|---|
D |---|---|---|---|---|
A |---|---|---|---|---|
E |---|---|---|---|---|
Can anybody out there feel me? G
G
e |---|---|-x-|---|---|
B |---|---|---|---|---|
G |---|---|---|---|---|
D |---|---|---|---|---|
A |---|-x-|---|---|---|
E |---|---|-x-|---|---|
Bm
Bm
e |---|-x-|---|---|---|
B |---|---|-x-|---|---|
G |---|---|---|-x-|---|
D |---|---|---|-x-|---|
A |---|-x-|---|---|---|
E |---|---|---|---|---|
'Cause I can't seem to feel myself Em
Em
e |---|---|---|---|---|
B |---|---|---|---|---|
G |---|---|---|---|---|
D |---|-x-|---|---|---|
A |---|-x-|---|---|---|
E |---|---|---|---|---|
Losing my way D
D
e |---|-x-|---|---|---|
B |---|---|-x-|---|---|
G |---|-x-|---|---|---|
D |---|---|---|---|---|
A |---|---|---|---|---|
E |---|---|---|---|---|
G
G
e |---|---|-x-|---|---|
B |---|---|---|---|---|
G |---|---|---|---|---|
D |---|---|---|---|---|
A |---|-x-|---|---|---|
E |---|---|-x-|---|---|
Keep losing my way... Bm
Bm
e |---|-x-|---|---|---|
B |---|---|-x-|---|---|
G |---|---|---|-x-|---|
D |---|---|---|-x-|---|
A |---|-x-|---|---|---|
E |---|---|---|---|---|
Em
Em
e |---|---|---|---|---|
B |---|---|---|---|---|
G |---|---|---|---|---|
D |---|-x-|---|---|---|
A |---|-x-|---|---|---|
E |---|---|---|---|---|
Keep losing my way... D
D
e |---|-x-|---|---|---|
B |---|---|-x-|---|---|
G |---|-x-|---|---|---|
D |---|---|---|---|---|
A |---|---|---|---|---|
E |---|---|---|---|---|
G
G
e |---|---|-x-|---|---|
B |---|---|---|---|---|
G |---|---|---|---|---|
D |---|---|---|---|---|
A |---|-x-|---|---|---|
E |---|---|-x-|---|---|
Bm
Bm
e |---|-x-|---|---|---|
B |---|---|-x-|---|---|
G |---|---|---|-x-|---|
D |---|---|---|-x-|---|
A |---|-x-|---|---|---|
E |---|---|---|---|---|
Can you help me find my way? Em
Em
e |---|---|---|---|---|
B |---|---|---|---|---|
G |---|---|---|---|---|
D |---|-x-|---|---|---|
A |---|-x-|---|---|---|
E |---|---|---|---|---|
Losing my way D
D
e |---|-x-|---|---|---|
B |---|---|-x-|---|---|
G |---|-x-|---|---|---|
D |---|---|---|---|---|
A |---|---|---|---|---|
E |---|---|---|---|---|
G
G
e |---|---|-x-|---|---|
B |---|---|---|---|---|
G |---|---|---|---|---|
D |---|---|---|---|---|
A |---|-x-|---|---|---|
E |---|---|-x-|---|---|
Keep losing my way Bm
Bm
e |---|-x-|---|---|---|
B |---|---|-x-|---|---|
G |---|---|---|-x-|---|
D |---|---|---|-x-|---|
A |---|-x-|---|---|---|
E |---|---|---|---|---|
Em
Em
e |---|---|---|---|---|
B |---|---|---|---|---|
G |---|---|---|---|---|
D |---|-x-|---|---|---|
A |---|-x-|---|---|---|
E |---|---|---|---|---|
Keep losing my way... D
D
e |---|-x-|---|---|---|
B |---|---|-x-|---|---|
G |---|-x-|---|---|---|
D |---|---|---|---|---|
A |---|---|---|---|---|
E |---|---|---|---|---|
G
G
e |---|---|-x-|---|---|
B |---|---|---|---|---|
G |---|---|---|---|---|
D |---|---|---|---|---|
A |---|-x-|---|---|---|
E |---|---|-x-|---|---|
Bm
Bm
e |---|-x-|---|---|---|
B |---|---|-x-|---|---|
G |---|---|---|-x-|---|
D |---|---|---|-x-|---|
A |---|-x-|---|---|---|
E |---|---|---|---|---|
Can you help me find my way? (from now on just use the same chord order (Em D G Bm) :) Now you gotta understand I was a family man I would have done anything for my own But I couldn't get a grip on my new found itch So I ended up all alone I remember where I was when I got my first buzz See I thought I was living the life And the craziest thing is I'll probably never know the color of my daughter's eyes And ... it is breaking me down Watching the world spin 'round While my dreams fall down Is anybody out there? It is breaking me down No more friend around... And my dreams fall down... Is anybody out there? Can anybody out there hear me? 'Cause I can't seem to hear myself Can anybody out there see me? 'Cause I can't seem to see myself There's gotta be a heaven somewhere (There's gotta be a heaven somewhere) Can you save me from this hell? (Can you save me?) Can anybody out there feel me? 'Cause I can't seem to feel myself. Losing my way... (yea..) Keep losing my way... (losing my way) Keep losing my way (echo) Can you help find my way? (ohh yea...) Losing my way Keep losing my way (losing my way) Keep losing my way (So...) Can you help me find my way? Oh my god please forgive me (father hear my pray) 'Cause I know I've done some wrong in this life (in this life) If I could do it all again (do it all again) Have just one more chance To take all those wrongs and make them (Oh!....) Can anybody out there hear me? 'Cause I can't seem to hear myself Can anybody out there see me? 'Cause I can't seem to see myself There's gotta be a heaven somewhere (gotta be a heaven somewhere...hey...) Can you save me from this hell Can anybody out there feel me? feel me 'Cause I can't seem to feel myself. feel me hey! Can anybody out there hear me? 'Cause I can't seem to hear myself Can anybody out there see me? 'Cause I can't seem to see myself There's gotta be a heaven somewhere Can you save me from this hell Can anybody out there feel me? 'Cause I can't seem to feel myself Losing my way Keep losing my way Keep losing my way Can you help me find my way? Losing my way Keep losing my way Keep losing my way -------------------------------------------------------- the end -------------------------------------------------------- I'm sorry for my bad english ;) and i hope i can help anybody with this tab thank you=) i'd be pleased if you rate this tab Jonas ===============================================================================

Added On December 16th, 2013

SHARE

Comments

blog comments powered by Disqus

ADVERTISEMENT