Justin Timberlake Tabs

Summer Love

2 versions

TAB

            This is pretty much the line all the way through, so just play it
over and over again until the song is finished.
|--0-2-3-2-0----------0----------------|
|------------3-1---3-------------------|
|--------------------------------------|
|--------------------------------------|
|--------------------------------------|
|--------------------------------------|
Or, you can play this alternate version.
|-0-2-3-2-0----------0-----------------|
|-0-2-3-2-0-3-1---3--0-----------------|
|-----------2-0---2--------------------|
|--------------------------------------|
|--------------------------------------|
|--------------------------------------|    

Added On December 16th, 2013

SHARE

Comments

blog comments powered by Disqus

VERSIONS

ADVERTISEMENT