Kaiser Chiefs Tabs

Saturday Night

2 versions

TAB

            Saturday Night Tab by Kaiser Chiefs


ace band... with the song off the album with the best riffage....love you Whitey!!

" dar ooooo"
e----------------------|
b----------------------|
g----------------------|
d----------------------|
a----------------------|
e-3---0--3--0----3---0-|

THE MAIN RIFF
e--------------------|
b--------------------|
g--------------------|
d--------------------|
a-5-5--2-2--5-5--2-2-|
e-3-3--0-0--3-3--0-0-|

e--------------------------------|
b--------------------------------|
g---------------------------- 32-| seconds
d--------------------------------|
a-7-7-7-7-7-7-7-7-7-7-7-7-7-7----|
e-5-5-5-5-5-5-5-5-5-5-5-5-5-5----|

then back to main riff

chorus....wanna be like those guys...
e---------------------------------------------------------------------|
b---------------------------------------------------------------------|
g---------------------------------------------------------------------|
d---------------------------------------------------------------------|
a-7-7-7-7-7-7-7-7-7-7-7-7-7-7-10-10-10-10-10-10-10-10-10-10-10-10-10--|
e-5-5-5-5-5-5-5-5-5-5-5-5-5-5-8--8--8--8--8--8--8--8--8--8--8--8--8---|

thats all you need to play it

now heres the amzing brilliant riff that we love.....STAMP THAT BOSS OD3 PEDAL ON!!

e------------------------------------------------------|
b------------------------------------------------------|
g------------------------------------------------------|
d------------------------------------------------------| x2
a-9-9-9-9-9-9-9-9-9--12-11--7-7-7-7-7-7-7-7-7-7--12-11-|
E-7-7-7-7-7-7-7-7-7--10-9---5-5-5-5-5-5-5-5-5-5--10-9--|

thats it

i couldnt figure out coxons bike at the start tho

tabbed by stu_f  www.myspace.com/stu_f  boysintheband.co.uk    

Added On December 5th, 2013

SHARE

Comments

blog comments powered by Disqus

VERSIONS

ADVERTISEMENT