Kamikazee Tabs

Shoot Dat Bol

2 versions

TAB

            Shoot Dat Bol Tab by Kamikazee


Shoot Dat Bol
by Kamikazee


d ito ung buong knta...verse plng i2...s susunod n ung kumple2ng version...hehehe..
kau n bhla s strumming...


[Verse 1]
e|---------------------------|
B|---------------------------|
G|----5---5----------5---5---|
D|----5-5-5----------5-5-5---|
A|----3-5-3----------3-5-3---|
E|------3--------------3-----|
  Nakuha ni Shaquille ang bola at hindi kaagad pinasa

e|---------------------------|
B|---------------------------|
G|----6---6----------6---6---|
D|----6-6-6----------6-6-6---|
A|----4-6-4----------4-6-4---|
E|------4--------------4-----|
  Dinribol dinribol puno ang araneta

e|---------------------------|
B|---------------------------|
G|----7---7----------7---7---|
D|----7-7-7----------7-7-7---|
A|----5-7-5----------5-7-5---|
E|------5--------------5-----|
  Nakuha ni Mcgrady at dinribol ng mahusay

e|---------------------------|
B|---------------------------|
G|----8---8----------8---8---|
D|----8-8-8----------8-8-8---|
A|----6-8-6----------6-8-6---|
E|------6--------------6-----|
  Dinribol nya sa ulo sa ulo ni Mutombo

e|---------------------------|
B|---------------------------|
G|---------------------------|
D|----9-9-9-9------9-9-9-9---|
A|----9-9-9-9------9-9-9-9---|
E|----7-7-7-7------7-7-7-7---|
  Nakuha ni Meneses at pinasa kay Destrito

e|-------------------------------|
B|-------------------------------|
G|-------------------------------|
D|----10-10-10-10---10-10-10-10--|
A|----10-10-10-10---10-10-10-10--|
E|----8--8--8--8----8--8--8--8---|
  Destrito Destrito wag ka sanang barumbado

e|-----------------------------|
B|-----------------------------|
G|-----------------------------|
D|----11-11-11-11-11-11-11-11--|
A|----11-11-11-11-11-11-11-11--|
E|----9--9--9--9--9--9--9--9---|
  Nakuha ni Destrito at hindi na napigilan

e|-----------------------------|
B|-----------------------------|
G|-----------------------------|
D|----12-12-12-12-12-12-12-12--|
A|----12-12-12-12-12-12-12-12--|
E|----10-10-10-10-10-10-10-10--|
  Pinasa nya kay Stacktone sa sadyang may kagalingan

e|---------------------------|
B|---------------------------|
G|---------------------------|
D|----3-3-3-3------3-3-3-3---|
A|----3-3-3-3------3-3-3-3---|
E|----1-1-1-1------1-1-1-1---|
  Stacktone to Malone Stacktone to Malone

(same as verse 1)
[Verse 2]

4th qtr na at wala pa ring nangyari
Mahigpit ang depensa at puno pa ng higante
Pumasok na si Kobe at akma nang lilipad
Hinarang siya ni Wallace na parang hindi nagulat
Kumross-over si Kobe nadulas bigla si Wallace
Tumakbo na si Kobe at hindi na inabutan
Hinabol ng kalaban ngunit di napigilan
360 lay-up fade away dunk
SUMABAY KA PA!! SUMABAY KA PA!!

END!

nxt tym nlng ung kulang n parts...
muzta nga pla kay MAAN!!!! mahal na mahal na kita!!!!
hehe..
-J0k-

email me:
j0k_z@yahoo.com
j0lazki@yahoo.com    

Added On December 5th, 2013

SHARE

Comments

blog comments powered by Disqus

VERSIONS

ADVERTISEMENT