Kasabian Tabs

Empire

3 versions

TAB

            Empire Tab by Kasabian


Tabber : FreedomFighter
Tuning : Standard (E A D G B e)

This is the new song by Kasabian.

I've tabbed out the violin parts in addition to the guitar parts and how to achieve that 
strumming sound.


Intro / Verse
e----------------------|---------------------|--------------------------------|
B----------------------|---------------------|--------------------------------|
G----------------------|---------------------|--------------------------------|
D----------------------|---------------------|--------------------------------|
A-7-10--7-10-7-10-7-10-|-7-10-7-10-7-10-7-10-|--------------------------------|
E----------------------|---------------------|-7-10-7-10-7-10-7-10-2-5-2-5-2-5|
It does that twice. Before bursting into the chorus.

In the Reading Festival, the other guitarist can be seen doing this.
e--19--21--17--|
B--------------|
G--------------|
He tremelo (plays them very quickly) picks these notes.

Chorus
e--------------------------------|
B--------------------------------|
G-9-999-12-121212--4-444--7--777-|
D-9-999-12-121212--4-444--7--777-|
A-7-777-10-101010--2-222--5--555-|
E--------------------------------|
To gain the effect he uses. You should use this strumming pattern (down (pause), down, 
down). The first chord should be staccato'd (not sustained)

Violin Part
e----------------|------------------|
B--9--7--5--/7---|-----------/5-----|
G----------------|--7--6--4---------|
D----------------|------------------|
A----------------|------------------|
E----------------|------------------|x2

e------------------------|
B--9--7--5---------------|
G-----------7---4/6--9-9-|
D------------------------|
A------------------------|
E------------------------|

I'm not quite sure about the rest of the song. It sounds like
e---------|
B---------|
G--9--999-|
D--9--999-|
A--7--777-|
E---------|

Enjoy. :)    

Added On December 5th, 2013

SHARE

Comments

blog comments powered by Disqus

VERSIONS

ADVERTISEMENT