Kid Rock Tabs

Forever

2 versions

TAB

            Forever Tab by Kid Rock


Guitars 1&3 are standard tuning
Guitar 2 is open G tuning (low to high DGDGBD)


Riff A intro Guitar 1      Guitar 2 clean tone w/slide
(with dist)     
p.m""""    """""""""
--------------------------  ---3:-///-9:- 9---9--(9)---
--------------------------  ---------------------------
--------------------------  ---3:-///-9:--9-------------
---------2----------------  ---------------------------
-22-222-------------------  ---------------------------
-00-030----0-0-0-3-0------  ---------------------------



GUitar 3 w/dist Riff D

-5p--3p--0--0----------------------------------------------
---------------5p--3p--0--0--------------------------------
------------------------------0--2hp--0--------------------
-----------------------------------------2--0-2hp-0--------
-----------------------------------------------------2--2--
--------------------------------------------------------0--


Chorus Riff C
Guitar 2 (w/dist and slide)
play 2 times
         ~~~~~~~~~~~~~~~ 
--------------------------------------------------------
--------------------------------------------------------
--------------------------------------------------------
--/14----14-----(14)----/12--(12)----12------12---------
--------------------------------------------------------
--------------------------------------------------------
    tree  top    you wanna roll with the kid rock
      ~~~~~
--------------------------------------------------------
--------------14----12----------------------------------
--------------------------------------------------------
--/14----14------------12---(12)---12---12--------------
--------------------------------------------------------
--------------------------------------------------------

       ~~~~~~~~~~~~~~~~~~~~~~~~~
--------------------------------------------------------
--------------------------------------------------------
-------14------14---(14)------14--------14--------------
-/14-------14-------------14----------------------------
--------------------------------------------------------
--------------------------------------------------------

(order of chorus solo by guitar 2)
riff c 1st soloX2,2nd solo,3rd solo then 2nd solo

Guitar 1 Then plays Riff A

-------------------------
-------------------------
-------------------------
---------2---------------
-22-222------------------
-00-030----0-0-0-3-0-----

theres a little solo here by GUitar 3

                                       Gradual Release
still the same      cause i  aint  changin nothin 
--------------------------------1/2-----------------------
------------------------------------>-----------------
---------------------------------------------
------------------------------------>---
-------------------------------12    

Added On December 5th, 2013

SHARE

Comments

blog comments powered by Disqus

VERSIONS

ADVERTISEMENT