Kid Rock Tabs

Wasting Time

2 versions

TAB

            Wasting Time Tab by Kid Rock


Kid Rock
Wasting Time
Tabbed By: mjwk_1986@yahoo.com

Intro

E----2--------------------------------2---/7-5-6-7~6~5-------------9-|
B------2-5-4^-2-4-2---------------------4--------------7----7-7-9^---|
G-4^----------------2--2~3--------2~3--------------------/8----------|
D---------------------4-------2-2------------------------------------|
A--------------------------------------------------------------------|
E--------------------------------------------------------------------|

E---------14--------14---------------14------------------------------|
B-7-9^-14----14-17^----17~14------------17~14--------------14^-------|
G----------------------------16^-16^----------16^-16~14----14^-------|
D-------------------------------------------------------16-----16----|
A--------------------------------------------------------------------|
E--------------------------------------------------------------------|

^-bend
~-hammer on/puul off
/-slide up    

Added On December 5th, 2013

SHARE

Comments

blog comments powered by Disqus

VERSIONS

ADVERTISEMENT