Killers Tabs

This River Is Wild

2 versions

TAB

            -------------------------------------------------------------------------------
			     This River Is Wild - The Killers
-------------------------------------------------------------------------------
Tabbed by: Cudman in Alma


Tuning:All Strings Flat Eb Ab Db Gb Bb Eb

Intro
e|-------------------------------------------------------------------------|
B|-------------------------------------------------------------------------|
G|-------------------------------------------------------------------------|
D|-------------------------------------------------------------------------|
A|--4--6----------------------4--------------------------------------------|
E|--------7--9-5---5--7--4--4----------------------------------------------|

e|-------------------------------------------------------------------------|
B|--9--------7-------------------------------------------------------------|
G|--9-x-12---8-x-4---------------------------------------------------------|
D|--9--------9-------------------------------------------------------------|
A|-------------------------------------------------------------------------|
E|-------------------------------------------------------------------------|
Verse
e|-------------------------------------------------------------------------|
B|---------------------------Keep repeating this---------------------------|
G|---------------------6---------------------------------------------------|
D|-2-------------------6--x-13------------2--------------------------------|
A|-2-x-13--------2-----4--------4--2------2--------------------------------|
E|-0-------2--4-----------------------4---0--------------------------------|
  p.m.                p.m.

I know the high notes here, not the first few low notes 0:44
e|-------------------------------------------------------------------------|
B|--10-10-9-7---7-7-7-5---7-7-7-5---5-5-4-4--------------------------------|
G|-------------------------------------------------------------------------|
D|-------------------------------------------------------------------------|
A|-------------------------------------------------------------------------|
E|-------------------------------------------------------------------------|

e|-------------------------------------------------------------------------|
B|----5-5-5-4---5-5-4-5---5-5-4-0---12-12-10-9-----------------------------|
G|-------------------------------------------------------------------------|
D|-------------------------------------------------------------------------|
A|-------------------------------------------------------------------------|
E|-------------------------------------------------------------------------|

Chorus
e|-------------------------------------------------------------------------|
B|-------------------------------------------------------------------------|
G|---------6---------------------------------------------------------------|
D|-2-------6--x-16---------------------------------------------------------|
A|-2-x-16--4---------------------------------------------------------------|
E|-0-----------------------------------------------------------------------|

Other Chorus Guitar
e|-------------------------------------------------------------------------|
B|--9--9-7-5-----12-9-10---------------------------------------------------|
G|-------------------------------------------------------------------------|
D|-------------------------------------------------------------------------|
A|-------------------------------------------------------------------------|
E|-------------------------------------------------------------------------|

End Of Chorus 1:04
e|-------------------------------------------------------------------------|
B|-------------------------------------------------------------------------|
G|-------------------------------------------------------------------------|
D|---4-------6------7------9-----------------------------------------------|
A|---4--x-8--6-x-8--7-x-8--9-x-8-------------------------------------------|
E|---2-------4------5------7-----------------------------------------------|

e|-------------------------------------------------------------------------|
B|-------------------------------------------------------------------------|
G|---------6---------------------------------------------------------------|
D|-2-------6--x-16---------------------------------------------------------|
A|-2-x-16--4---------------------------------------------------------------|
E|-0-----------------------------------------------------------------------|


e|-------------------------------------------------------------------------|
B|--9--------7------5-------7----------------------------------------------|
G|--9-x-12---8-x-4--6-x-12--8-x-4------------------------------------------|
D|--9--------9------7-------9----------------------------------------------|
A|-------------------------------------------------------------------------|
E|-------------------------------------------------------------------------|


A lot of the stuff like intro verse and chorus repeats, so use that most of the song. In 
last verse the background guitar does sweet stuff but i dont know what it is. someone 
it out and post it or send me it 09rpcudd@alma.edu thanks    

Added On December 16th, 2013

SHARE

Comments

blog comments powered by Disqus

VERSIONS

ADVERTISEMENT