King Creosote Tabs

My Favourite Girl

1 versions

TAB

            C
-----0-------0------|
-----1-------1------|
-0-0-0-0-0-0-0-0----|
-2-2-2-2-2-2-2-2----|
-3-3---3-3-3---3----|
--------------------|

F

-----1-----1--------|
-----1-----1--------|
-2-2-2-2-2-2-2------|
-3-3-3-3-3-3-3------|
-3-3---3-3---3------|
--------------------|

All the other chords are played just like C and F.

Intro:

C C F F x2

C   C   F       F
Better listen closely

C   C        F       F       Am   Em
I guess that I have not got long

F    Dm7        F    F
Promise you'll tell her

F         F        C     C    F    F
She's my favorite girl

C   C  F        F
Can I make her happy?

C   C        F       F       Am   Em
I guess that I have not got long

F   Dm7         F    F
Promise you'll tell her

F         F        C   C     F     
F  C
She's my favorite girl    in all the world

F        F  C
In all the world, in all the world
In all the world, in all the world
In all the world, in all the world
In all the world

If trere are mistakes in the text, just be sure to play the missing parts like here.    

Added On December 16th, 2013

SHARE

Comments

blog comments powered by Disqus

ADVERTISEMENT