Kings Of Leon Tabs

Sex On Fire

6 versions

TAB

            Dont know if its 100% but its complete!

Intro and verse

Caleb
E|-----------|-----------|-----------|-----------|
B|-----------|-----------|-----------|-----------|
G|-----------|-----------|-----------|-----------|
D|--11-9-9-9-|--11-9-9-9-|--11-9-9-9-|--11-9-9-9-|
A|-----------|-----------|-----------|-----------|
E|-----------|-----------|-----------|-----------|


E|-----------|-----------|-----------|-----------|
B|-----------|-----------|-----------|-----------|
G|-----------|-----------|-----------|-----------|
D|7-6-6-6----|7-6-6-6----|7-6-6-6----|7-6-6-6----|
A|-----------|-----------|-----------|-----------|
E|-----------|-----------|-----------|-----------|

Matt
E|----7------|-----------|----4------|-----------|
B|----9------|-----------|----5------|-----------|
G|----9------|-X 16------|----6------|-X 16------|
D|-----------|-----------|-----------|-----------|
A|-----------|-----------|-----------|-----------|
E|-----------|-----------|-----------|-----------|

Chorus

Caleb
E|-----------|-----------|
B|-----------|-----------|
G|---9-------|-----------|
D|---9--X 32-|---11------|
A|---7-------|---11--X 32|
E|-----------|---9-------|

Matt
E|-7-7-7-7-\-11--11--11--11--11--11--11--11--\-7-7-7-7---|
B|--9-9-9-9\---12--12--12--12--12--12--12--12\--9-9-9-9--|
G|-------------------------------------------------------|
D|-------------------------------------------------------|
A|-------------------------------------------------------|
E|-------------------------------------------------------|

E|-11--11----------11--11-----|
B|-14b-14b-14~-----14b-14b-9~-|
G|----------------------------|
D|----------------------------|
A|----------------------------|
E|----------------------------|

Verse
Chorus 
Bridge (same as chorus really)
Chorus untill end. last chord is E

enjoy! please comment/rate    

Added On December 16th, 2013

SHARE

Comments

blog comments powered by Disqus

VERSIONS

ADVERTISEMENT