Kings Of Leon Tabs

Use Somebody

4 versions

TAB

            ---------------------------------------------------------------------------
	               Use Somebody - Kings Of Leon
---------------------------------------------------------------------------

Hey, this is a great new song by kings of leon. 
My first tab however so sorry if it's messy. 
A couple of bits missing but i'm 90% sure what I have is correct.
Any comments appreciated

Intro:
Guitar 1
e|-------------------------------------------------------------------|
B|-------------------------------------------------------------------|
G|---9--9--9--9---9--9--9--9---2-2-2-2--2-2-2-2----------------------|
D|--10-10-10-10--10-10-10-10---3-3-3-3--3-3-3-3----------------------| x4
A|--10-10-10-10--10-10-10-10---3-3-3-3--3-3-3-3----------------------|
E|---8--8--8--8---0--0--0--0---1-1-1-1--1-1-1-1----------------------|
    Oowooohooo   Oowooohooo

Guitar 2
e|-------------------------------------------------------------------|
B|---5-5-5-5-5-5-5-5-5-5-5-5-5-5-5-5---------------------------------|
G|---4-4-4-4-4-4-4-4-4-4-4-4-4-4-4-4---------------------------------|
D|-------------------------------------------------------------------| x4
A|-------------------------------------------------------------------|
E|-------------------------------------------------------------------|



Verse 1:
Guitar 1
e|-------------------------------------------------------------------|
B|-------------------------------------------------------------------|
G|---9--9--9--9---9--9--9--9---2-2-2-2--2-2-2-2----------------------|
D|--10-10-10-10--10-10-10-10---3-3-3-3--3-3-3-3----------------------| x2
A|--10-10-10-10--10-10-10-10---3-3-3-3--3-3-3-3----------------------|
E|---8--8--8--8---0--0--0--0---1-1-1-1--1-1-1-1----------------------|
    I've been roaming around, always looking down and all I see 
    Painted faces, build the places I cant reach 


e|-------------------------------------------------------------------|
B|-------------------------------------------------------------------|
G|---6-6-6-6---9--9--9--9--2-2-2-2--2-2-2-2--------------------------|
D|---7-7-7-7--10-10-10-10--3-3-3-3--3-3-3-3--------------------------| x2
A|---7-7-7-7--10-10-10-10--3-3-3-3--3-3-3-3--------------------------|
E|---5-5-5-5---8--8--8--8--1-1-1-1--1-1-1-1--------------------------|
     You know that I could use somebody
     You know that I could use somebody


Verse 2:
Guitar 1
e|-------------------------------------------------------------------|
B|-------------------------------------------------------------------|
G|---9--9--9--9---9--9--9--9---2-2-2-2--2-2-2-2----------------------|
D|--10-10-10-10--10-10-10-10---3-3-3-3--3-3-3-3----------------------| x2
A|--10-10-10-10--10-10-10-10---3-3-3-3--3-3-3-3----------------------|
E|---8--8--8--8---0--0--0--0---1-1-1-1--1-1-1-1----------------------|
    Someone like you, And all you know, And how you speak 
    Countless lovers under cover of the street 

Guitar 2
e|-------------------------------------------------------------------|
B|---5--5-5--5-5-5---5--5-5--5-5-5-----------------------------------|
G|---4--4-4--4-4-4---4--4-4--4-4-4-----------------------------------|
D|-------------------------------------------------------------------|x2
A|-------------------------------------------------------------------|
E|-------------------------------------------------------------------|

Guitar 1
e|-------------------------------------------------------------------|
B|-------------------------------------------------------------------|
G|---6-6-6-6---9--9--9--9--2-2-2-2--2-2-2-2--------------------------|
D|---7-7-7-7--10-10-10-10--3-3-3-3--3-3-3-3--------------------------| x2
A|---7-7-7-7--10-10-10-10--3-3-3-3--3-3-3-3--------------------------|
E|---5-5-5-5---8--8--8--8--1-1-1-1--1-1-1-1--------------------------|
     You know that I could use somebody
     You know that I could use somebody
     Someone like you

Guitar 2 (actually does somethin a little different here but I dont know it)
e|-------------------------------------------------------------------|
B|---5--5-5--5-5-5---5--5-5--5-5-5-----------------------------------|
G|---4--4-4--4-4-4---4--4-4--4-4-4-----------------------------------|
D|-------------------------------------------------------------------|
A|-------------------------------------------------------------------|
E|-------------------------------------------------------------------|


Chorus:
Guitar 1
e|-------------------------------------------------------------------|
B|-------------------------------------------------------------------|
G|---9--9--9--9---9--9--9--9---2-2-2-2--2-2-2-2----------------------|
D|--10-10-10-10--10-10-10-10---3-3-3-3--3-3-3-3----------------------| x4
A|--10-10-10-10--10-10-10-10---3-3-3-3--3-3-3-3----------------------|
E|---8--8--8--8---0--0--0--0---1-1-1-1--1-1-1-1----------------------|
    Oowooohooo   Oowooohooo

Guitar 2
e|-------------------------------------------------------------------|
B|---5-5-5-5-5-5-5-5-5-5-5-5-5-5-5-5---------------------------------|
G|---4-4-4-4-4-4-4-4-4-4-4-4-4-4-4-4---------------------------------|
D|-------------------------------------------------------------------| x2
A|-------------------------------------------------------------------|
E|-------------------------------------------------------------------|

Guitar 2 does something else the next 2 times round but I cant pick 
it sorry. Still sounds cool playing this part here 4x



Verse 3:
Guitar 1
e|-------------------------------------------------------------------|
B|-------------------------------------------------------------------|
G|---9--9--9--9---9--9--9--9---2-2-2-2--2-2-2-2----------------------|
D|--10-10-10-10--10-10-10-10---3-3-3-3--3-3-3-3----------------------| x2
A|--10-10-10-10--10-10-10-10---3-3-3-3--3-3-3-3----------------------|
E|---8--8--8--8---0--0--0--0---1-1-1-1--1-1-1-1----------------------|
    Off in the night, while you live it up, I'm off to sleep 
    Waging wars to shape the poet and the beat 


Guitar 1
e|-------------------------------------------------------------------|
B|-------------------------------------------------------------------|
G|---6-6-6-6---9--9--9--9--2-2-2-2--2-2-2-2--------------------------|
D|---7-7-7-7--10-10-10-10--3-3-3-3--3-3-3-3--------------------------| x2
A|---7-7-7-7--10-10-10-10--3-3-3-3--3-3-3-3--------------------------|
E|---5-5-5-5---8--8--8--8--1-1-1-1--1-1-1-1--------------------------|
     I hope it's gunna make you notice
     I hope it's gunna make you notice
     Someone like me

Guitar 2 
e|-------------------------------------------------------------------|
B|---5--5-5--5-5-5---5--5-5--5-5-5-----------------------------------|
G|---4--4-4--4-4-4---4--4-4--4-4-4-----------------------------------|
D|-------------------------------------------------------------------| x2
A|-------------------------------------------------------------------|
E|-------------------------------------------------------------------|



Chorus:
Guitar 1
e|-------------------------------------------------------------------|
B|-------------------------------------------------------------------|
G|---9--9--9--9---9--9--9--9---2-2-2-2--2-2-2-2----------------------|
D|--10-10-10-10--10-10-10-10---3-3-3-3--3-3-3-3----------------------| x4
A|--10-10-10-10--10-10-10-10---3-3-3-3--3-3-3-3----------------------|
E|---8--8--8--8---0--0--0--0---1-1-1-1--1-1-1-1----------------------|
    Oowooohooo   Oowooohooo
    Someone like me, Someone like me
    Someone like me somebody

Guitar 2
e|-------------------------------------------------------------------|
B|---5-5-5-5-5-5-5-5-5-5-5-5-5-5-5-5---------------------------------|
G|---4-4-4-4-4-4-4-4-4-4-4-4-4-4-4-4---------------------------------|
D|-------------------------------------------------------------------| x2
A|-------------------------------------------------------------------|
E|-------------------------------------------------------------------|



Bridge:
Guitar 1
e|-------------------------------------------------------------------|
B|-------------------------------------------------------------------|
G|--11-11-11-11-11-11-11-11-----3-3-3-3-3-3-3-3----------------------|
D|--12-12-12-12-12-12-12 12-x2--4-4-4-4-4-4-4-4-x2-------------------|
A|--12-12-12-12-12-12-12-12-----4-4-4-4-4-4-4-4----------------------|
E|--10-10-10-10-10-10-10-10-----2-2-2-2-2-2-2-2----------------------|
    (Dont let it out  Dont let it out)

e|-------------------------------------------------------------------|
B|-------------------------------------------------------------------|
G|--11-11-11-11-11-11-11-11-3-3-3-3-3-3------------------------------|
D|--12-12-12-12-12-12-12 12-4-4-4-4-4-4------------------------------|
A|--12-12-12-12-12-12-12-12-4-4-4-4-4-4-2/7--------------------------|
E|--10-10-10-10-10-10-10-10-2-2-2-2-2-2-2/7--------------------------|
    (Dont let it out  Dont let it out)



Solo:
Guitar 1
e|-------------------------------------------------------------------|
B|-------------------------------------------------------------------|
G|---6-6-6-6---9--9--9--9--2-2-2-2--2-2-2-2--------------------------|
D|---7-7-7-7--10-10-10-10--3-3-3-3--3-3-3-3--------------------------| x5
A|---7-7-7-7--10-10-10-10--3-3-3-3--3-3-3-3--------------------------|
E|---5-5-5-5---8--8--8--8--1-1-1-1--1-1-1-1--------------------------|
     Someone like you Someone like you
     Someone like you somebody

Guitar 2
e|-------------------------------------------------------------------|
B|----------------------------------6-6-6-6-5------5b6r5-3-----------|
G|--9-9-9-9/12-12-12-12---------------------hold-----------5---------|
D|----------------------10-10-10-10----------------------------------| x5
A|-------------------------------------------------------------------|
E|-------------------------------------------------------------------|



Verse:
Guitar 1
e|-------------------------------------------------------------------|
B|-------------------------------------------------------------------|
G|---9--9--9--9---9--9--9--9---2-2-2-2--2-2-2-2----------------------|
D|--10-10-10-10--10-10-10-10---3-3-3-3--3-3-3-3----------------------|
A|--10-10-10-10--10-10-10-10---3-3-3-3--3-3-3-3----------------------|
E|---8--8--8--8---0--0--0--0---1-1-1-1--1-1-1-1----------------------|
    I've been roamin around always lookin' down and all I see


That's it!
Hope you enjoy!

Nundies    

Added On December 16th, 2013

SHARE

Comments

blog comments powered by Disqus

VERSIONS

ADVERTISEMENT